Log in

One click and you are in

Login with Facebook Login with Google

Why sign up and log in

Guitar Tabs Explorer
Dinosaur Jr. tabs for Seemed like the thing

Guitar tabs with lyrics

Dinosaur Jr
Seemed like the thing to do
Tabbed by Michael Gartley

I like to play this song with a capo on the 7th fret, that way
it plays a lot easier.  This song shows that not only can J rock, but he's
also a great song writer.
Intro:
e-------------------|-------------------
b-------2-----2---2-|-----2-----2---0---
g-------------------|-------------------
d-----2-----2-------|---0-----0---------
a--0------0-----0---|-0-----0-----0-----
e-------------------|-------------------

sometimes goes to:
e-------------------|-------------------
b-------5-----5---5-|-----3-----3---2---
g-------------------|-------------------
d-----2-----2-------|---0-----0---------
a--0------0-----0---|-0-----0-----0-----
e-------------------|-------------------

During the chorus, I'm still not really sure what is going on
   A chord diagramG+G
e-------------------------------
b----------3----2---------------
g--------0----------2---etc-----
d------0------------------------
a----2--------------------------
e--3----------------------------

but the major chord progression in the chorus (i think) goes between
A chord diagramG+G   Dsus/F#   and sometimes an A chord diagramA augmentedA chord.  I don't have the time to type out
where all the chords appear, but once you get to know the song well
enough, you'll know where they fit in.

chords (don't forget the capo!)
-------------------------------
A chord diagramG+G       320033
Dsus/F# 200230
A chord diagramA augmentedA       x02220

Other versions of Seemed Like The Thing

Seemed like the thing to doTabs

Almost there ...

Sign in to get your own page with links to favourite songs and more. You are just one click away...

Login with Facebook Login with Google