Vredesbyrd by Dimmu Borgir

Vredesbyrd tab by Dimmu Borgir

Guitar tabs

Interlude:

|---------------------------|
|---------------------------|
|-------13----12------------|
|----10----------11---11----|
|--8-------10-------11------|
|---------------------------|



|---------------------------|
|---------------------------|
|--------13----12-----------|
|-----10----------11---11---|
|--8--------10-------11-----|
|---------------------------|



|---------------------------|
|---------------------------|
|-------8-----10--8--6--8---|
|----6----------------------|
|-4--------6----------------|
|---------------------------|



|---------------------------|
|---------------------------|
|---------------------------|
|-------8-----11--10--8--10-|
|----8-----8----------------|
|-6-------------------------|


-==Verse 2:==-

. - palm mute      / - slide up to
\ - slide down to    ~ - vibrato
h - hammer on      b - Bend
p - pull off      Suffixes for bend
t - tap         f - full bend  h - half bend
ph - pinched harmonic  q - quarter bend t - tap bend
* - see comment     ^ - Hold bend  r release bend
x - Stuccatto      ~ - vibrato bend
, - slight palm mute  () - ghost note, sustained note
" - tremolo note     - Trill

Tunning E A D G B E

Riff#1(a).Fast..picking=up and down stroking.

|-------------------------------------|
|-------------------------------------|
|-------------------------------------|
|-------------------------------------|
|----------------4----1111111-2-3\4-3-|
|1111111111111111-------------0-1\2-1-|

 ................*   ......
Riff#1(b).Same as riff 1, except where not.Just letting the two notes ring.4 and 1.

|-------------------------------------|
|-------------------------------------|
|-------------------------------------|
|-------------------------------------|
|----------------4----1-------2-3\4-3-|
|1111111111111111-------------0-1\2-1-|

 ................          *

Riff#2. Heavy.

|------------------------------------------|
|------------------------------------------|
|------------------------------------------|
|------------------------------------------|
|-------2\4-------2-4----1-1-1-1-1-2-3\4-3-|
|1-1-1-1---1-1-1-1-1---------------0-1\2-1-|

 . . . .   . . . .    . . . .
Riff#3. Heavy.Slow.

|---------------------------------------|
|---------------------------------------|
|---------------------------------------|
|5----7-6-8-5--8--7-8--5----7-6-8--4--6-|
|3----5-4-6-3--6--5-6--3----5-4-6--2--4-|
|3----5-4-6-3--6--5-6--3----5-4-6--2--4-|

   . . . .   . .    . . .
Transition A. Slow.

|-------------------|
|-------------------|
|-------------------| Repeat Riff #3.
|-------------------|
|3------------2---6-|
|-------------------|

Transition B. up and down picking.

|------------------------------------|
|------------------------------------|
|------------------------------------|
|------------------------------------|
|------------------------------------|
|0-0-0-0-0-0-0-0-0-0-0-0-0-0-0-0-12/3|

 . . . . . . . . . . . . . . . .
Riff#4. Slightly Fast.

|-------------------------------------------------------|--------------------------------|
|-------------------------------------------------------|--------------------------------|
|-------------------------------------------------------|--------------------------------|
|------------9-----------------------9-109-8-----------4|----------5----------7\8-7\8-7\8|
|2-----------7-----------2-----------7-8-7-6-----------2|----------3----------5\6-5\6-5\6|
|0-0-0-0-0-0---0-0-0-0-0-0-0-0-0-0-0---------0-0-0-0-0--|0-0-0-0-0---0-0-0-0-0-----------|

  . . . . .  . . . . .  . . . . .     . . . . .

Riff#4, continued.
Fill 1.

|-------------------------------------| |---|
|-------------------------------------| |---|
|-------------------------------------| |---|
|------------5------------------------| |---|Stop. Drum Roll. Repeat Riff#3.
|------------3-3-3-3-3-3-3------------| |-2-|
|3-3-3-3-3-3---------------1-1-1-1-1-1| |-0-|

 . . . . . .  . . . . . . . . . . . .
Riff#5.Fast where bunched notes are of course.

|---------------------------------------------------------------------------|
|---------------------------------------------------------------------------|
|---------------------------------------------------------------------------|
|----------------------------------7---7------------------------------------|
|4--444444--4--444444--4--444444-55--55--4--444444-4-444444-----6-6-----5-5-|
|-----------------------------------------------------------44444-4-33333-3-|

 . ...... . ...... . ...... .. .. . ...... . ...... ....  ....

Riff #6.Fast.

|--------------------------------------------------------|       |---|----------------|
|--------------------------------------------------------|       |---|----------------|
|--------------------------------------------------------|       |---|----------------|
|--------------------------------------------------------|Repeat Riff#5.|---|----------------|
|7777777777777777888888887777777777777777----------------|       |-2-|-----3-3-3-3-3-3|
|----------------------------------------7777777766666666|       |-0-|-----1-1-1-1-1-1|

 ........................................................
Repeat Riff#1 and start at the * where note "4" is.                 . . . . . .
Repeat Riff#1b, and
the last part of the riff where the 2nd * is in Riff#1 b. Continue with this:

|--------|
|--------|
|--------|
|--------|
|3-3-3-3-|
|1-1-1-1-|
 . . . .
End Riff.

-==Versão 3:==-

Riff 1a

E|---------------------------------------
B|---------------------------------------
G|---------------------------------------
D|-----------------------3-------------3-
A|-------------------4-3-1-11111-2-34-3-
E|-1111111111111111--------------0-12-1-
 ................    .....     (4 times)


Riff 2
Gtr 1

E|--------------------------------------
B|--------------------------------------
G|----1010-1313-1010-1212---------------
D|-10---------------------1313-1010-11--
A|--------------------------------------
E|--------------------------------------



E|--------------------------------------
B|--------------------------------------
G|----1010-1313-1010-1212---------------
D|-10---------------------1313-1010-11--
A|--------------------------------------
E|--------------------------------------



E|--------------------------------------
B|--------------------------------------
G|---66-88----1010-66----6--------------
D|-6-------66---------66----------------
A|--------------------------------------
E|--------------------------------------



E|--------------------------------------
B|--------------------------------------
G|--------------------------------------
D|---88-1010----1111-1010-88-10---------
A|-8---------88-------------------------
E|--------------------------------------


Gtr 2

E|--------------------------------------------
B|--------------------------------------------
G|--------------------------------------------
D|------------------------------------------3-
A|------------------44444444-11111111-2-34-3-
E|-1111111111111111-------------------0-12-1-
 ................ ........ ........     (4 times)


Riff 1b

E|---------------------------------------------------
B|---------------------------------------------------
G|---------------------------------------------------
D|-----------------------------------3-------------3-
A|---------2-4-3-------1---1-3-4---3-1-1-1-1-2-34-3-
E|-1-1-1-1-------1-1-1---1-------------------0-12-1-
 . . . .    . . .  .      . . .      (4 times)


Riff 3a

E|------------------------------------------
B|------------------------------------------
G|------------------------------------------
D|-5--4-5-8-7-4-7-8--5--4-5-8-4--8----------
A|-3--2-3-6-5-2-5-6--3--2-3-6-2--6----------
E|-3--2-3-6-5-2-5-6--3--2-3-6-2--6----------

   . . . .  . .   . . .


E|------------------------------------------
B|------------------------------------------
G|------------------------------------------
D|-5--4-5-8-7-4-7-8--5--4-5-8-4--6----------
A|-3--2-3-6-5-2-5-6--3--2-3-6-2--4----------
E|-3--2-3-6-5-2-5-6--3--2-3-6-2--4----------
   . . . .  . .   . . .        (2 times)


Riff 3b

E|------------------------------------------
B|------------------------------------------
G|------------------------------------------
D|-5----4----8----5----4----6---------------
A|-3----2--2-6----3----2--2-4---------------
E|------------------------------------------

     .       . .

Play Riff 3a 1 time then:

Transition 1

E|------------------------------------------
B|------------------------------------------
G|------------------------------------------
D|------------------------------------------
A|------------------------------------------
E|-0-0-0-0-0-0-0-0-0-0-0-0-0-0-0-0-12/3-----

 . . . . . . . . . . . . . . . .

Riff 4

E|--------------------------------------------------------------------------
B|--------------------------------------------------------------------------
G|--------------------------------------------------------------------------
D|----------9-----------------9-10-9-8--------4--------5--------8/7-8/7-8/7-
A|-2--------7--------2--------7--8-7-6--------2--------3--------6/5-6/5-6/5-
E|-0-000000---000000-0-000000----------000000---000000---000000-------------

  ......  ......  ......     ......  ......  ......


E|---------------------------------------------------------------------------
B|---------------------------------------------------------------------------
G|---------------------------------------------------------------------------
D|----------9-----------------9-10-9-8--------4--------5---------------------
A|-2--------7--------2--------7--8-7-6--------2--------3-333333--------------
E|-0-000000---000000-0-000000----------000000---333333----------1111-4-1-4-1-
  ......  ......  ......     ......  ......  ...... .... . . . . (2 times)


Play Riff 3a 2 times then:

Riff 4a

E|----------------------------------------------------------------------
B|----------------------------------------------------------------------
G|----------------------------7-7-7-------------------------------------
D|----------------------------7-7-7-------------------------------------
A|-4-444444-4-444444-4-444444-5-5-5-4-444444-4-444444------6-6------5-5-
E|----------------------------------------------------4444-4-4-3333-3-3-
 . ...... . ...... . ......    . ...... . ...... ....   ....   (4 times)


Riff 4b

E|---------------------------------------------------------------------
B|---------------------------------------------------------------------
G|---------------------------------------------------------------------
D|----------------------------10-10-10---------------------------------
A|-7-777777-7-777777-7-777777--8--8--8-7-777777-7-777777---------------
E|-------------------------------------------------------777777-666666-
 . ...... . ...... . ......     . ...... . ...... ...... ......  (2 times)


Play riff 4a 2 times then:

Transition 2

E|---------------------------------------
B|---------------------------------------
G|---------------------------------------
D|----------------------3--------------3-
A|-3-3-3-3-3-3-3-3--4-3-1-11111--2-34-3-
E|-1-1-1-1-1-1-1-1---------------0-12-1-

 . . . . . . . .    .....

Play Riff 1a 4 times
Play Riff 2 4 times then:


E|---------
B|---------
G|---------
D|-3-3-3-3-
A|-3-3-3-3-
E|-1-1-1-1-

Find guitar tabs and chords

A B C D E F G H I J K L M N O P Q R S T U V W X Y Z #