United In Unhallowed Grace by Dimmu Borgir

United In Unhallowed Grace bass tab by Dimmu Borgir

Bass tabs

  • Difficulty: Beginner
Time Signature: 3/4 -- 4/4 -- 6/4

🤘 Verse : 0:00 4/4

  E. E. E E S S S S S S  E. E. E E S S S S S S  E. E. E E S S S S S S  E. E. E E S S S S S S
G|-------------------------|-------------------------|-------------------------|-------------------------|
D|-------------------------|-------------------------|-------------------------|-------------------------|
A|-------------------------|-------------------------|-------------------------|-------------------------|
E|-------------------------|----4--------------------|-------------------------|----4--------------------|
B|-1--5--4--1--1-1-1-1-1-1-|-1-----1--0--0-0-0-0-0-0-|-1--5--4--1--1-1-1-1-1-1-|-1-----1--0--0-0-0-0-0-0-|

  E. E. E E S S S S S S  E. E. E E S S S S S S  E. E. E E S S S S S S  E. E. E E S S S S S S
G|-------------------------|-------------------------|-------------------------|-------------------------||
D|-------------------------|-------------------------|-------------------------|-------------------------||
A|-------------------------|-------------------------|-------------------------|-------------------------||
E|-------------------------|----4--------------------|-------------------------|----4--------------------||
B|-1--5--4--1--1-1-1-1-1-1-|-1-----1--0--0-0-0-0-0-0-|-1--5--4--1--1-1-1-1-1-1-|-1-----1--0--0-0-0-0-0-0-||


🤘 Pre-Chorus:  0:17

  S S S S S S S S S S S S S S S S  S S S S S S S S S S S S E E
G|---------------------------------|------------------------------|
D|---------------------------------|------------------------------|
A|---------------------------------|------------------------------|
E|-0-0-0-0-0-0-0-0-0-0-0-0-0-0-0-0-|-4-4-4-4-4-4-4-4-4-4-4-4-4--3-|
B|---------------------------------|------------------------------|

  S S S S S S S S S S S S S S S S  S S S S S S S S S S S S E E
G|---------------------------------|------------------------------|
D|---------------------------------|------------------------------|
A|---------------------------------|------------------------------|
E|-0-0-0-0-0-0-0-0-0-0-0-0-0-0-0-0-|-4-4-4-4-4-4-4-4-4-4-4-4------|
B|---------------------------------|-------------------------3--3-|

  S S S S S S S S S S S S S S S S  S S S S S S S S S S S S E E
G|---------------------------------|------------------------------|
D|---------------------------------|------------------------------|
A|---------------------------------|------------------------------|
E|-0-0-0-0-0-0-0-0-0-0-0-0-0-0-0-0-|-4-4-4-4-4-4-4-4-4-4-4-4-4--3-|
B|---------------------------------|------------------------------|

  S S S S S S S S S S S S S S S S  S S S S S S S S S S S S E E
G|---------------------------------|------------------------------||
D|---------------------------------|------------------------------||
A|---------------------------------|------------------------------||
E|-0-0-0-0-0-0-0-0-0-0-0-0-0-0-0-0-|-4-4-4-4-4-4-4-4-4-4-4-4------||
B|---------------------------------|-------------------------3--3-||


🤘 Chorus: 0:34

  S S S S S S S S S S S S S S S S  S S S S S S S S S S S S E E
G|---------------------------------|------------------------------|
D|---------------------------------|------------------------------|
A|---------------------------------|------------------------------|
E|-0-0-0-0-0-0-0-0-0-0-0-0-0-0-0-0-|-4-4-4-4-4-4-4-4-4-4-4-4-4--3-|
B|---------------------------------|------------------------------|

  S S S S S S S S S S S S S S S S  S S S S S S S S S S S S E E
G|---------------------------------|------------------------------|
D|---------------------------------|------------------------------|
A|---------------------------------|------------------------------|
E|-0-0-0-0-0-0-0-0-0-0-0-0-0-0-0-0-|-4-4-4-4-4-4-4-4-4-4-4-4------|
B|---------------------------------|-------------------------3--3-|

  E S S E S S E S S E S S  E S S E S S E S S E E
G|-----------------------------|---------------------------|
D|-----------------------------|---------------------------|
A|-----------------------------|---------------------------|
E|-0--0-0-0--0-0-0--0-0-0--0-0-|-4--4-4-4--4-4-4--4-4-4--3-|
B|-----------------------------|---------------------------|

  E S S E S S E S S E S S  E S S E S S E S S E E
G|-----------------------------|---------------------------||
D|-----------------------------|---------------------------||
A|-----------------------------|---------------------------||
E|-0--0-0-0--0-0-0--0-0-0--0-0-|-4--4-4-4--4-4-4--4-4------||
B|-----------------------------|----------------------3--3-||


🤘 Verse 2: 0:51

  E. E. E E S S S S S S  E. E. E E S S S S S S  E. E. E E S S S S S S  E. E. E E S S S S S S
G|-------------------------|-------------------------|-------------------------|-------------------------|
D|-------------------------|-------------------------|-------------------------|-------------------------|
A|-------------------------|-------------------------|-------------------------|-------------------------|
E|-------------------------|----4--------------------|-------------------------|----4--------------------|
B|-1--5--4--1--1-1-1-1-1-1-|-1-----1--0--0-0-0-0-0-0-|-1--5--4--1--1-1-1-1-1-1-|-1-----1--0--0-0-0-0-0-0-|

  S S S S S S S S S S S S S S S S  S S S S S S S S S S S S S S S S
G|---------------------------------|---------------------------------|
D|---------------------------------|---------------------------------|
A|-3-3-3-7-7-7-6-6-3-3-3-3-3-3-3-3-|-3-3-3-------3-3-2-2-2-2-2-2-2-2-|
E|---------------------------------|-------4-4-4---------------------|
B|---------------------------------|---------------------------------|

  S S S S S S S S S S S S S S S S  S S S S S S S S S S S S S S S S
G|---------------------------------|---------------------------------||
D|---------------------------------|---------------------------------||
A|-3-3-3-7-7-7-6-6-3-3-3-3-3-3-3-3-|-3-3-3-------3-3-2-2-2-2-2-2-2-2-||
E|---------------------------------|-------4-4-4---------------------||
B|---------------------------------|---------------------------------||


Mid Song Riff: 1:08 6/4

  E. S E E. S E E. S E E. S E  E. S E E. S E E. S E E. S E
G|--------------------------------|--------------------------------|
D|--------------------------------|--------------------------------|
A|--------------------------------|--------------------------------|
E|---------3--3-3--4--4-4--1--1-1-|---------3--3-3--1--1-1--4--4-4-|
B|-1--1-1-------------------------|-1--1-1-------------------------|

  E. S E E. S E E. S E E. S E  E. S E E. S E E. S E E. S E
G|--------------------------------|--------------------------------|
D|--------------------------------|--------------------------------|
A|--------------------------------|--------------------------------|
E|---------3--3-3--4--4-4--1--1-1-|---------3--3-3--1--1-1--4--4-4-|
B|-1--1-1-------------------------|-1--1-1-------------------------|

  E. S E E. S E E. S E E. S E  E. S E E. S E E. S E E. S E
G|--------------------------------|--------------------------------|
D|--------------------------------|--------------------------------|
A|--------------------------------|--------------------------------|
E|---------3--3-3--4--4-4--1--1-1-|---------3--3-3--1--1-1--4--4-4-|
B|-1--1-1-------------------------|-1--1-1-------------------------|

  E. S E E. S E E. S E E. S E  E S E S E S E S E S E S E S E S
G|--------------------------------|-----------------------------------------||
D|--------------------------------|-----------------------------------------||
A|--------------------------------|-----------------------------------------||
E|---------3--3-3--4--4-4--1--1-1-|-----------3--3-3--3-1--1-1--1-4--4-4--4-||
B|-1--1-1-------------------------|-1--1-1--1-------------------------------||


Mid Song: 1:36

  E S E S E S E S E S E S E S E S E S E S E S E S E S E S E S E S
G|----------------------------------------|-----------------------------------------|
D|----------------------------------------|-----------------------------------------|
A|----------------------------------------|-----------------------------------------|
E|-----------3--3-3--3-4--4-4--4-1--1-1--1|-----------3--3-3--3-1--1-1--1-4--4-4--4-|
B|-1--1-1--1------------------------------|-1--1-1--1-------------------------------|

  E S E S E S E S E S E S E S E S E S E S E S E S E S E S E S E S
G|----------------------------------------|-----------------------------------------|
D|----------------------------------------|-----------------------------------------|
A|----------------------------------------|-----------------------------------------|
E|-----------3--3-3--3-4--4-4--4-1--1-1--1|-----------3--3-3--3-1--1-1--1-4--4-4--4-|
B|-1--1-1--1------------------------------|-1--1-1--1-------------------------------|

  E S E S E S E S E S E S E S E S E S E S E S E S E S E S E S E S
G|----------------------------------------|-----------------------------------------|
D|----------------------------------------|-----------------------------------------|
A|----------------------------------------|-----------------------------------------|
E|-----------3--3-3--3-4--4-4--4-1--1-1--1|-----------3--3-3--3-1--1-1--1-4--4-4--4-|
B|-1--1-1--1------------------------------|-1--1-1--1-------------------------------|

  E S E S E S E S E S E S E S E S E S E S E S E S E S S E E S S E
G|----------------------------------------|----------------------------------------||
D|----------------------------------------|----------------------------------------||
A|----------------------------------------|----------------------------------------||
E|-----------3--3-3--3-4--4-4--4-1--1-1--1|-----------3--3-3--3-1--1-1-1--4--4-4-4-||
B|-1--1-1--1------------------------------|-1--1-1--1------------------------------||


🤘 Bridge:  2:03 4/4

  W  H Q E E  Q. E Q. E  E Q E Q E E
G|----|-----------|-----------|---------------|
D|----|-----------|-----------|---------------|
A|----|-----------|-----------|---------------|
E|-0--|-----------|-0--0-0--0-|---------------|
B|----|-1--1--2-4-|-----------|-1-2--2-2--2-2-|

  Q. E Q. E  Q. E Q E E  Q. E Q. E  E Q E Q E E
G|-----------|-------------|-----------|---------------|
D|-----------|-------------|-----------|---------------|
A|-----------|-------------|-----------|---------------|
E|-0--0-0--0-|-------------|-0--0-0--0-|---------------|
B|-----------|-1--1-1--2-4-|-----------|-1-2--2-2--2-2-|

  Q. E Q. E  Q. E Q E E  Q. E Q. E  E Q E Q E E
G|-----------|-------------|-----------|---------------|
D|-----------|-------------|-----------|---------------|
A|-----------|-------------|-----------|---------------|
E|-0--0-0--0-|-------------|-0--0-0--0-|---------------|
B|-----------|-1--1-1--2-4-|-----------|-1-2--2-2--2-2-|

  Q. E Q. E  Q. E Q E E  Q. E Q. E  E Q E Q E E
G|-----------|-------------|-----------|---------------||
D|-----------|-------------|-----------|---------------||
A|-----------|-------------|-----------|---------------||
E|-0--0-0--0-|-------------|-0--0-0--0-|---------------||
B|-----------|-1--1-1--2-4-|-----------|-1-2--2-2--2-2-||


🤘 Pre-Chorus:  2:30

  W  H. E E
G|----|---------|
D|----|---------|
A|----|---------|
E|-0--|-L---4-3-|
B|----|---------|

  S S S S S S S S S S S S S S S S  S S S S S S S S S S S S E E
G|---------------------------------|------------------------------|
D|---------------------------------|------------------------------|
A|---------------------------------|------------------------------|
E|-0-0-0-0-0-0-0-0-0-0-0-0-0-0-0-0-|-4-4-4-4-4-4-4-4-4-4-4-4------|
B|---------------------------------|-------------------------3--3-|

  S S S S S S S S S S S S S S S S  S S S S S S S S S S S S E E
G|---------------------------------|------------------------------|
D|---------------------------------|------------------------------|
A|---------------------------------|------------------------------|
E|-0-0-0-0-0-0-0-0-0-0-0-0-0-0-0-0-|-4-4-4-4-4-4-4-4-4-4-4-4------|
B|---------------------------------|-------------------------4--4-|

  S S S S S S S S S S S S S S S S  S S S S S S S S S S S S E E
G|---------------------------------|------------------------------||
D|---------------------------------|------------------------------||
A|---------------------------------|------------------------------||
E|-0-0-0-0-0-0-0-0-0-0-0-0-0-0-0-0-|-4-4-4-4-4-4-4-4-4-4-4-4-4--3-||
B|---------------------------------|------------------------------||


🤘 Chorus:  2:48

  S S S S S S S S S S S S S S S S  S S S S S S S S S S S S E E
G|---------------------------------|------------------------------|
D|---------------------------------|------------------------------|
A|---------------------------------|------------------------------|
E|-0-0-0-0-0-0-0-0-0-0-0-0-0-0-0-0-|-4-4-4-4-4-4-4-4-4-4-4-4-4--3-|
B|---------------------------------|------------------------------|

  S S S S S S S S S S S S S S S S  S S S S S S S S S S S S E E
G|---------------------------------|------------------------------|
D|---------------------------------|------------------------------|
A|---------------------------------|------------------------------|
E|-0-0-0-0-0-0-0-0-0-0-0-0-0-0-0-0-|-4-4-4-4-4-4-4-4-4-4-4-4------|
B|---------------------------------|-------------------------3--3-|

  E S S E S S E S S E S S  E S S E S S E S S S E.
G|-----------------------------|--------------------------|
D|-----------------------------|--------------------------|
A|-----------------------------|--------------------------|
E|-0--0-0-0--0-0-0--0-0-0--0-0-|-4--4-4-4--4-4-4--4-4-4-3-|
B|-----------------------------|--------------------------|

  E S S E S S E S S E S S  E S S E S S E S S E E
G|-----------------------------|---------------------------||
D|-----------------------------|---------------------------||
A|-----------------------------|---------------------------||
E|-0--0-0-0--0-0-0--0-0-0--0-0-|-4--4-4-4--4-4-4--4-4------||
B|-----------------------------|----------------------4--4-||


🤘 Bridge:  3:05 3/4

  E Q. E E  H  E E  H  E E  H  E E
G|----------|---------|---------|---------|
D|----------|---------|---------|---------|
A|----------|---------|---------|---------|
E|-0-R--4-1-|-R---1-4-|-R---4-1-|-R---1-4-|
B|----------|---------|---------|---------|

  S S S S S S S S E E  S S S S S S S S E E  S S S S S S S S E E  S S S S S S S S E E
G|---------------------|---------------------|---------------------|---------------------|
D|---------------------|---------------------|---------------------|---------------------|
A|---------------------|---------------------|---------------------|---------------------|
E|-0-0-0-0-0-0-0-0-4-1-|-0-0-0-0-0-0-0-0-1-4-|-0-0-0-0-0-0-0-0-4-1-|-0-0-0-0-0-0-0-0-1-4-|
B|---------------------|---------------------|---------------------|---------------------|

  S S S S S S S S E E  S S S S S S S S E E  S S S S S S S S E E  S S S S S S S S E E
G|---------------------|---------------------|---------------------|---------------------|
D|---------------------|---------------------|---------------------|---------------------|
A|---------------------|---------------------|---------------------|---------------------|
E|-0-0-0-0-0-0-0-0-4-1-|-0-0-0-0-0-0-0-0-1-4-|-0-0-0-0-0-0-0-0-4-1-|-0-0-0-0-0-0-0-0-1-4-|
B|---------------------|---------------------|---------------------|---------------------|

  S S S S S S S S E E  S S S S S S S S E E  S S S S S S S S E E  S S S S S S S S E E
G|---------------------|---------------------|---------------------|---------------------|
D|---------------------|---------------------|---------------------|---------------------|
A|---------------------|---------------------|---------------------|---------------------|
E|-0-0-0-0-0-0-0-0-4-1-|-0-0-0-0-0-0-0-0-1-4-|-0-0-0-0-0-0-0-0-4-1-|-0-0-0-0-0-0-0-0-1-4-|
B|---------------------|---------------------|---------------------|---------------------|

  S S S S S S S S E E  S S S S S S S S E E  S S S S S S S S E E  S S S S S S S S E E
G|---------------------|---------------------|---------------------|---------------------||
D|---------------------|---------------------|---------------------|---------------------||
A|---------------------|---------------------|---------------------|---------------------||
E|-0-0-0-0-0-0-0-0-4-1-|-0-0-0-0-0-0-0-0-1-4-|-0-0-0-0-0-0-0-0-4-1-|-0-0-0-0-0-0-0-0-1-4-||
B|---------------------|---------------------|---------------------|---------------------||


🤘 Pre-Chorus:  3:38 4/4

  S S S S S S S S S S S S S S S S  S S S S S S S S S S S S E E
G|---------------------------------|------------------------------|
D|---------------------------------|------------------------------|
A|---------------------------------|------------------------------|
E|-0-0-0-0-0-0-0-0-0-0-0-0-0-0-0-0-|-4-4-4-4-4-4-4-4-4-4-4-4-4--3-|
B|---------------------------------|------------------------------|

  S S S S S S S S S S S S S S S S  S S S S S S S S S S S S E E
G|---------------------------------|------------------------------|
D|---------------------------------|------------------------------|
A|---------------------------------|------------------------------|
E|-0-0-0-0-0-0-0-0-0-0-0-0-0-0-0-0-|-4-4-4-4-4-4-4-4-4-4-4-4------|
B|---------------------------------|-------------------------4--4-|

  S S S S S S S S S S S S S S S S  S S S S S S S S S S S S E E
G|---------------------------------|------------------------------|
D|---------------------------------|------------------------------|
A|---------------------------------|------------------------------|
E|-0-0-0-0-0-0-0-0-0-0-0-0-0-0-0-0-|-4-4-4-4-4-4-4-4-4-4-4-4-4--3-|
B|---------------------------------|------------------------------|

  S S S S S S S S S S S S S S S S  S S S S S S S S S S S S E E
G|---------------------------------|------------------------------||
D|---------------------------------|------------------------------||
A|---------------------------------|------------------------------||
E|-0-0-0-0-0-0-0-0-0-0-0-0-0-0-0-0-|-4-4-4-4-4-4-4-4-4-4-4-4------||
B|---------------------------------|-------------------------4--4-||


🤘 Chorus:  3:56

  S S S S S S S S S S S S S S S S  S S S S S S S S S S S S E E
G|---------------------------------|------------------------------|
D|---------------------------------|------------------------------|
A|---------------------------------|------------------------------|
E|-0-0-0-0-0-0-0-0-0-0-0-0-0-0-0-0-|-4-4-4-4-4-4-4-4-4-4-4-4-4--3-|
B|---------------------------------|------------------------------|

  S S S S S S S S S S S S S S S S  S S S S S S S S S S S S E E
G|---------------------------------|------------------------------|
D|---------------------------------|------------------------------|
A|---------------------------------|------------------------------|
E|-0-0-0-0-0-0-0-0-0-0-0-0-0-0-0-0-|-4-4-4-4-4-4-4-4-4-4-4-4------|
B|---------------------------------|-------------------------4--4-|

  S S S S S S S S S S S S S S S S  S S S S S S S S S S S S E E
G|---------------------------------|------------------------------|
D|---------------------------------|------------------------------|
A|---------------------------------|------------------------------|
E|-0-0-0-0-0-0-0-0-0-0-0-0-0-0-0-0-|-4-4-4-4-4-4-4-4-4-4-4-4-4--3-|
B|---------------------------------|------------------------------|

  S S S S S S S S S S S S S S S S  S S S S S S S S S S S S S S S S
G|---------------------------------|---------------------------------|
D|---------------------------------|---------------------------------|
A|---------------------------------|---------------------------------|
E|-0-0-0-0-0-0-0-0-0-0-0-0-0-0-0-0-|-4-4-4-4-4-4-4-4-4-4-4-4---------|
B|---------------------------------|-------------------------4-4-R-4-|

  W
G|----||
D|----||
A|----||
E|-0--||
B|----||


************************************
Duration 🏷Legend

| W - Whole Note
| H - Half Note
| Q - Quarter Note
| E - Eighth Note
| S - Sixteenth Note
|  - Dotted Note

************************************
Tablature 🏷Legend

| L - Tie Note
| R - Rest

************************************

Find guitar tabs and chords

A B C D E F G H I J K L M N O P Q R S T U V W X Y Z #