Log in

One click and you are in

Login with Facebook Login with Google

Why sign up and log in

Guitar Tabs Explorer
Dimmu Borgir bass tabs for The mourning palace

The Mourning Palace bass tab by Dimmu Borgir

Dimmu Borgir bass tabs for The mourning palace

Bass tabs

Intro
G|----------------------------------|
D|---------------------------2------|
A|---2-------5-------4--------------|
E|----------------------------------|
Riff A x6
G|----------------------------|--------------------------|-------------------------|
D|----------------------------|--------------------------|-------------------------|
A|----------------------------|--------------------------|-------------------------|
E|---2-2-2-2-2-2-2-2-2-2-2-2--|---2-2-2-2-2-2-2-2-2-2-2--|---2-2-2-2-2-2-2-2-2-2---|

G|----------------------------------|
D|---------------------------2------|
A|---2-------5-------4--------------|
E|----------------------------------|


Riff B X2
G|-----------------------------------------------------------------------|
D|-----------------------------------------------------------------------|
A|---------------------------------4-4-4-4-4-4-4-4-4-2-2-2-2-2-2-2-2-2---|
E|---2-2-2-2-2-2-2-2-2-2-2-2-2-2-2---------------------------------------|

G|-----------------------------------------------------------------------|
D|---------------------------------------------------4-2-1-------4-~-----|
A|-----------------------------------4-4-4-4-4-4-4-4-------2-0-2---------|
E|---2-2-2-2-2-2-2-2-2-2-2-2-2-2-2---------------------------------------|

The second time you play Riff B you need to end it
with this outro


outro Riff B
G|-----------------------------|
D|--------------------------2--|
A|---2------4------5-----------|
E|-----------------------------|

G|--------------|---------------|
D|---Riff-A-X3--|---Riff-B-X2---|
A|--------------|---------------|
E|--------------|---------------|


Riff C X4
G|--------|-------------------------------------------------------------------------|
D|--------|----------------------------9--------------------------------------------|
A|--------|---------------------9-11-12-12-11-9-9-7---------------------------------|
E|---0~---|------10-10-10-9-9-9-----------------------3-3-3-2-2-2-3-3-3-2-2-2-------|
     hear the cries...


Riff D X9
G|--------------------------------|------------------------------------------|
D|--------------------------------|------------------------------------------|
A|-------------------------0-2----|----------------------------------2-0-----|
E|-------------------3-3-3--------|----------------------------3-3-3---------|

G|---------------|------------------------------|
D|---Riff C X4---|------------------------------|
A|---------------|-----2--2---------------------|
E|---------------|-------------3--0-------------|


Riff F X6
G|-----------------------------------------------------|
D|-----------------------------------------------------|
A|---2-2-2-2-2-2-2-2-2-2-------------------------------|
E|-----------------------3-3-3-3-3-3-3-3-0-0-0-0-0-0---|


Riff G X2
G|---------------------------------------------------------------------------|
D|-------------------------------------------4------5-4-2--------------------|
A|------2-----------2---------2----------2-----------------------------------|
E|----------------------------------------------3-3--------------------------|

G|--------------|---------------|
D|---Riff-F-X4--|---------------|
A|--------------|---------------|
E|--------------|---------------|

The Mourning Palace is almost one of the
most rewarding songs to play,now get the bass
and rock on.
ⓘ Bass guitar tab for 'The Mourning Palace' by Dimmu Borgir, a black metal band formed in 1993 from Oslo, Norway. Dimmu Borgir is known for their angry metal music.

Almost there ...

Sign in to get your own page with links to favourite songs and more. You are just one click away...

Login with Facebook Login with Google