Stormblast by Dimmu Borgir

Stormblast bass tab by Dimmu Borgir

Bass tabs

  • Difficulty: Beginner
🤘 Intro:
 0:00

  E E E E E E E E E E E E  E E E E E E E E E E E E  E E E E E E E E E E E E  E E E E E E E E E E E E
G|-------------------------|-------------------------|-------------------------|-------------------------|
D|-------------------------|-------------------------|-------------------------|-------------------------|
A|-------------------------|-------------------------|-------------------------|-------------------------|
E|-7-7-7-7-7-7-7-7-7-7-5-5-|-2-2-2-2-2-2-2-2-2-2-2-2-|-7-7-7-7-7-7-7-7-7-7-5-5-|-2-2-2-2-2-2-2-2-2-2-2-2-|

  E E E E E E E E E E E E  E E E E E E E E E E E E  E E E E E E E E E E E E  E E E E E E E E E E E E
G|-------------------------|-------------------------|-------------------------|-------------------------|
D|-------------------------|-------------------------|-------------------------|-------------------------|
A|-------------------------|-------------------------|-------------------------|-------------------------|
E|-7-7-7-7-7-7-7-7-7-7-5-5-|-2-2-2-2-2-2-2-2-2-2-2-2-|-7-7-7-7-7-7-7-7-7-7-5-5-|-2-2-2-2-2-2-2-2-2-2-2-2-|

  E E E E E E E E E E E E  E E E E E E E E E E E E  E E E E E E E E E E E E  E E E E E E E E E E E E
G|-------------------------|-------------------------|-------------------------|-------------------------|
D|-------------9-9-9-------|-------------4-4-4-------|-------------9-9-9-------|-------------4-4-4-------|
A|-7-7-7-7-7-7-------7-7-7-|-5-5-5-5-5-5-------5-5-5-|-7-7-7-7-7-7-------7-7-7-|-5-5-5-5-5-5-------5-5-5-|
E|-------------------------|-------------------------|-------------------------|-------------------------|

  E E E E E E E E E E E E  E E E E E E E E E E E E  E E E E E E E E E E E E  E E E E E E E E E E E E
G|-------------------------|-------------------------|-------------------------|-------------------------|
D|-------------------------|-------------------------|-------------------------|-------------------------|
A|-------------------------|-------------------------|-------------------------|-------------------------|
E|-7-7-7-7-7-7-7-7-7-7-5-5-|-2-2-2-2-2-2-2-2-2-2-2-2-|-7-7-7-7-7-7-7-7-7-7-5-5-|-2-2-2-2-2-2-2-2-2-2-2-2-|

  E E E E E E E E E E E E  E E E E E E E E E E E E  E E E E E E E E E E E E  E E E E E E E E E E E E
G|-------------------------|-------------------------|-------------------------|-------------------------||
D|-------------9-9-9-------|-------------4-4-4-------|-------------9-9-9-------|-------------4-4-4-------||
A|-7-7-7-7-7-7-------7-7-7-|-5-5-5-5-5-5-------5-5-5-|-7-7-7-7-7-7-------7-7-7-|-5-5-5-5-5-5-------5-5-5-||
E|-------------------------|-------------------------|-------------------------|-------------------------||




🤘 Verse 1: 00:48

  E E E E E E E E E E E E  E E E E E E E E E E E E
G|--------------------------------|-------------------------|
D|--------------------------------|-------------------------|
A|-7-7-7-7-9-10-12-12-12-10-10-10-|-9-9-9-9-9-9-9-9-9-9-9-9-|
E|--------------------------------|-------------------------|

  E E E E E E E E E E E E  E E E E E E E E E E E E
G|--------------------------------|-------------------------|
D|--------------------------------|-------------------------|
A|-7-7-7-7-9-10-12-12-12-10-10-10-|-9-9-9-9-9-9-9-9-9-9-9-9-|
E|--------------------------------|-------------------------|

  E E E E E E E E E E E E  E E E E E E E E E E E E
G|--------------------------------|-------------------------|
D|--------------------------------|-------------------------|
A|-7-7-7-7-9-10-12-12-12-10-10-10-|-9-9-9-9-9-9-9-9-9-9-9-9-|
E|--------------------------------|-------------------------|

  E E E E E E E E E E E E  E E E E E E E E E E E E
G|--------------------------------|-------------------------||
D|--------------------------------|-------------------------||
A|-7-7-7-7-9-10-12-12-12-10-10-10-|-9-9-9-9-9-9-9-9-9-9-9-9-||
E|--------------------------------|-------------------------||


🤘 Pre-Chorus:  1:05

  E E E E E E E E E E E E  E E E E E E E E E E E E  E E E E E E E E E E E E  E E E E E E E E E E E E
G|-------------------------|-------------------------|-------------------------|-------------------------|
D|-------------------------|-------------------------|-------------------------|-------------------------|
A|-------------------------|-------------------3-3---|-------------------------|-------------------3-3---|
E|-5-5-5-5-5-5-5-5-5-0-0-0-|-1-1-1-1-1-1-3-3-3-----3-|-5-5-5-5-5-5-5-5-5-0-0-0-|-1-1-1-1-1-1-3-3-3-----3-|

  E E E E E E E E E E E E  E E E E E E E E E E E E  E E E E E E E E E E E E  E E E E E E E E E E E E
G|-------------------------|-------------------------|-------------------------|-------------------------|
D|-------------------------|-------------------------|-------------------------|-------------------------|
A|-------------------------|-------------------3-3---|-------------------------|-------------------3-3---|
E|-5-5-5-5-5-5-5-5-5-0-0-0-|-1-1-1-1-1-1-3-3-3-----3-|-5-5-5-5-5-5-5-5-5-0-0-0-|-1-1-1-1-1-1-3-3-3-----3-|

  E E E E E E E E E E E E  E E E E E E E E E E E E  E E E E E E E E E E E E  E E E E E E E E E E E E
G|-------------------------|-------------------------|-------------------------|-------------------------|
D|-------------------------|-------------------3-3---|-------------------------|-------------------3-3---|
A|-5-5-5-5-5-5-5-5-5-0-0-0-|-1-1-1-1-1-1-3-3-3-----3-|-5-5-5-5-5-5-5-5-5-0-0-0-|-1-1-1-1-1-1-3-3-3-----3-|
E|-------------------------|-------------------------|-------------------------|-------------------------|

  E E E E E E E E E E E E  E E E E E E E E E E E E  E E E E E E E E E E E E  E E E E E E E E E E E E
G|-------------------------|-------------------------|-------------------------|-------------------------||
D|-------------------------|-------------------3-3---|-------------------------|-------------------3-3---||
A|-5-5-5-5-5-5-5-5-5-0-0-0-|-1-1-1-1-1-1-3-3-3-----3-|-5-5-5-5-5-5-5-5-5-0-0-0-|-1-1-1-1-1-1-3-3-3-----3-||
E|-------------------------|-------------------------|-------------------------|-------------------------||


🤘 Chorus:  1:40

  Q E E Q Q E E Q  Q E E Q Q Q E E  Q E E Q Q E E Q  Q E E Q Q E E Q
G|--------------------|---------------------|--------------------|--------------------|
D|-2--2-2-2--4--4-4-4-|-2--2-2-2--4-----4-5-|-2--2-2-2--4--4-4-4-|-2--2-2-2-----------|
A|--------------------|--------------2------|--------------------|-----------2--2-2-2-|
E|--------------------|---------------------|--------------------|--------------------|

  Q E E Q Q E E Q  Q E E Q Q Q E E  Q E E Q Q E E Q  Q E E Q Q E E Q
G|--------------------|---------------------|--------------------|--------------------|
D|-2--2-2-2--4--4-4-4-|-2--2-2-2--4-----4-5-|-2--2-2-2--4--4-4-4-|-2--2-2-2-----------|
A|--------------------|--------------2------|--------------------|-----------2--2-2-2-|
E|--------------------|---------------------|--------------------|--------------------|

  Q E E Q Q E E Q  Q E E Q Q Q E E  Q E E Q Q E E Q  Q E E Q Q E E Q
G|--------------------|---------------------|--------------------|--------------------|
D|-2--2-2-2--4--4-4-4-|-2--2-2-2--4-----4-5-|-2--2-2-2--4--4-4-4-|-2--2-2-2-----------|
A|--------------------|--------------2------|--------------------|-----------2--2-2-2-|
E|--------------------|---------------------|--------------------|--------------------|

  Q E E Q Q E E Q  Q E E Q Q Q E E  Q E E Q Q E E Q  Q E E Q Q E E Q
G|--------------------|---------------------|--------------------|--------------------||
D|-2--2-2-2--4--4-4-4-|-2--2-2-2--4-----4-5-|-2--2-2-2--4--4-4-4-|-2--2-2-2-----------||
A|--------------------|--------------2------|--------------------|-----------2--2-2-2-||
E|--------------------|---------------------|--------------------|--------------------||


🤘 Verse 2: 2:14

  E E E E E E E E E E E E  E E E E E E E E E E E E
G|--------------------------------|-------------------------|
D|--------------------------------|-------------------------|
A|-7-7-7-7-9-10-12-12-12-10-10-10-|-9-9-9-9-9-9-9-9-9-9-9-9-|
E|--------------------------------|-------------------------|

  E E E E E E E E E E E E  E E E E E E E E E E E E
G|--------------------------------|----------------------------|
D|--------------------------------|----------------------------|
A|-7-7-7-7-9-10-12-12-12-10-10-10-|-9-9-9-9-9-9-9-9-9-10-10-10-|
E|--------------------------------|----------------------------|

  E E E E E E E E E E E E  E E E E E E E E E E E E
G|--------------------------------|-------------------------|
D|--------------------------------|-------------------------|
A|-7-7-7-7-9-10-12-12-12-10-10-10-|-9-9-9-9-9-9-9-9-9-9-9-9-|
E|--------------------------------|-------------------------|

  E E E E E E E E E E E E  E E E E E E E E E E E E
G|--------------------------------|-------------------------||
D|--------------------------------|-------------------------||
A|-7-7-7-7-9-10-12-12-12-10-10-10-|-9-9-9-9-9-9-9-9-9-9-9-9-||
E|--------------------------------|-------------------------||


🤘 Pre-Chorus:  2:32

  E E E E E E E E E E E E  E E E E E E E E E E E E  E E E E E E E E E E E E  E E E E E E E E E E E E
G|-------------------------|-------------------------|-------------------------|-------------------------|
D|-------------------------|-------------------------|-------------------------|-------------------------|
A|-------------------------|-------------------3-3---|-------------------------|-------------------3-3---|
E|-5-5-5-5-5-5-5-5-5-0-0-0-|-1-1-1-1-1-1-3-3-3-----3-|-5-5-5-5-5-5-5-5-5-0-0-0-|-1-1-1-1-1-1-3-3-3-----3-|

  E E E E E E E E E E E E  E E E E E E E E E E E E  E E E E E E E E E E E E  E E E E E E E E E E E E
G|-------------------------|-------------------------|-------------------------|-------------------------|
D|-------------------------|-------------------------|-------------------------|-------------------------|
A|-------------------------|-------------------3-3---|-------------------------|-------------------3-3---|
E|-5-5-5-5-5-5-5-5-5-0-0-0-|-1-1-1-1-1-1-3-3-3-----3-|-5-5-5-5-5-5-5-5-5-0-0-0-|-1-1-1-1-1-1-3-3-3-----3-|

  E E E E E E E E E E E E  E E E E E E E E E E E E  E E E E E E E E E E E E  E E E E E E E E E E E E
G|-------------------------|-------------------------|-------------------------|-------------------------|
D|-------------------------|-------------------3-3---|-------------------------|-------------------3-3---|
A|-5-5-5-5-5-5-5-5-5-0-0-0-|-1-1-1-1-1-1-3-3-3-----3-|-5-5-5-5-5-5-5-5-5-0-0-0-|-1-1-1-1-1-1-3-3-3-----3-|
E|-------------------------|-------------------------|-------------------------|-------------------------|

  E E E E E E E E E E E E  E E E E E E E E E E E E  E E E E E E E E E E E E  E E E E E E E E E E E E
G|-------------------------|-------------------------|-------------------------|-------------------------||
D|-------------------------|-------------------3-3---|-------------------------|-------------------3-3---||
A|-5-5-5-5-5-5-5-5-5-0-0-0-|-1-1-1-1-1-1-3-3-3-----3-|-5-5-5-5-5-5-5-5-5-0-0-0-|-1-1-1-1-1-1-3-3-3-----3-||
E|-------------------------|-------------------------|-------------------------|-------------------------||


🤘 Chorus:  3:08

  Q E E Q Q E E Q  Q E E Q Q Q E E  Q E E Q Q E E Q  Q E E Q Q E E Q
G|--------------------|---------------------|--------------------|--------------------|
D|-2--2-2-2--4--4-4-4-|-2--2-2-2--4-----4-5-|-2--2-2-2--4--4-4-4-|-2--2-2-2-----------|
A|--------------------|--------------2------|--------------------|-----------2--2-2-2-|
E|--------------------|---------------------|--------------------|--------------------|

  Q E E Q Q E E Q  Q E E Q Q Q E E  Q E E Q Q E E Q  Q E E Q Q E E Q
G|--------------------|---------------------|--------------------|--------------------|
D|-2--2-2-2--4--4-4-4-|-2--2-2-2--4-----4-5-|-2--2-2-2--4--4-4-4-|-2--2-2-2-----------|
A|--------------------|--------------2------|--------------------|-----------2--2-2-2-|
E|--------------------|---------------------|--------------------|--------------------|

  Q E E Q Q E E Q  Q E E Q Q Q E E  Q E E Q Q E E Q  Q E E Q Q E E Q
G|--------------------|---------------------|--------------------|--------------------||
D|-2--2-2-2--4--4-4-4-|-2--2-2-2--4-----4-5-|-2--2-2-2--4--4-4-4-|-2--2-2-2-----------||
A|--------------------|--------------2------|--------------------|-----------2--2-2-2-||
E|--------------------|---------------------|--------------------|--------------------||


🤘 Outro:  3:34

              Q E E E E Q E E E E  Q E E E E Q E E E E  Q. E Q Q Q Q
G|-----------------------|-----------------------|-------------------------|-----------------|
D|-----------------------|-----------------------|-------------------------|-----------------|
A|-----------------------|-----------------------|-7--7-7-7-7-7--7-10-9-10-|-9--9------------|
E|-----------------------|-7--7-7-7-7-7--7-7-7-7-|-------------------------|------7--7--7--7-|

  Q E E Q Q Q Q  Q. E Q Q Q Q  Q E E Q Q Q Q  Q. E Q Q Q Q
G|-------------------|-----------------|-------------------|-----------------|
D|-------------------|---------4--0----|-------------------|---------4--4--4-|
A|-------------------|-2--2-2--------2-|-------------------|-2--2-2----------|
E|-3--3-3-3--3--3--5-|-----------------|-3--3-3-3--3--3--5-|-----------------|

  Q. E E E Q E E E E  Q. E Q Q Q Q  Q. E E E Q E E E E  Q E E Q Q E E Q
G|-----------------------|-----------------|-----------------------|--------------------|
D|-----------------------|-----------------|-----------------------|--------------------|
A|-7--7-7-7-7--7-10-9-10-|-9--9------------|-7--7-7-7-7--7-10-9-10-|-9--9-9-9-----------|
E|-----------------------|------7--7--7--7-|-----------------------|-----------7--7-7-7-|

  Q E E Q Q Q Q  Q. E Q Q Q Q  Q E E Q Q Q Q  Q. E Q Q Q Q
G|-------------------|-----------------|-------------------|-----------------|
D|-------------------|---------4--0----|-------------------|---------4--4--4-|
A|-------------------|-2--2-2--------2-|-------------------|-2--2-2----------|
E|-3--3-3-3--3--3--5-|-----------------|-3--3-3-3--3--3--5-|-----------------|

  Q E E E E Q E E E E  Q. E Q Q Q Q  Q E E E E Q E E E E  Q E E Q Q E E Q
G|-------------------------|-----------------|-------------------------|--------------------|
D|-------------------------|-----------------|-------------------------|--------------------|
A|-7--7-7-7-7-7--7-10-9-10-|-9--9------------|-7--7-7-7-7-7--7-10-9-10-|-9--9-9-9-----------|
E|-------------------------|------7--7--7--7-|-------------------------|-----------7--7-7-7-|

  Q E E Q Q Q Q  Q. E Q Q Q Q  Q E E Q Q Q Q  Q. E Q Q Q Q
G|-------------------|-----------------|-------------------|-----------------||
D|-------------------|---------4--0----|-------------------|---------4--4--4-||
A|-------------------|-2--2-2--------2-|-------------------|-2--2-2----------||
E|-3--3-3-3--3--3--5-|-----------------|-3--3-3-3--3--3--5-|-----------------||


Outro Piano: 4:25

  Q. E E E Q E E E E  Q. E Q Q Q Q  Q. E E E Q E E E E  Q E E Q Q E E Q
G|-----------------------|-----------------|-----------------------|--------------------|
D|-----------------------|-----------------|-----------------------|--------------------|
A|-7--7-7-7-7--7-10-9-10-|-9--9------------|-7--7-7-7-7--7-10-9-10-|-9--9-9-9-----------|
E|-----------------------|------7--7--7--7-|-----------------------|-----------7--7-7-7-|

  Q E E Q Q Q Q  Q. E Q Q Q Q  Q E E Q Q Q Q  Q. E Q Q Q Q
G|-------------------|-----------------|-------------------|-----------------|
D|-------------------|---------4--0----|-------------------|---------4--4--4-|
A|-------------------|-2--2-2--------2-|-------------------|-2--2-2----------|
E|-3--3-3-3--3--3--5-|-----------------|-3--3-3-3--3--3--5-|-----------------|

  Q. E E E Q E E E E  Q. E Q Q Q Q  Q. E E E Q E E E E  Q E E Q Q E E Q
G|-----------------------|-----------------|-----------------------|--------------------|
D|-----------------------|-----------------|-----------------------|--------------------|
A|-7--7-7-7-7--7-10-9-10-|-9--9------------|-7--7-7-7-7--7-10-9-10-|-9--9-9-9-----------|
E|-----------------------|------7--7--7--7-|-----------------------|-----------7--7-7-7-|

  Q E E Q Q Q Q  Q. E Q Q Q Q  Q E E Q Q Q Q  Q. E Q Q Q Q
G|-------------------|-----------------|-------------------|-----------------||
D|-------------------|---------4--0----|-------------------|---------4--4--4-||
A|-------------------|-2--2-2--------2-|-------------------|-2--2-2----------||
E|-3--3-3-3--3--3--5-|-----------------|-3--3-3-3--3--3--5-|-----------------||



The same pattern repeats until the end of the song.




************************************
Duration 🏷Legend

| Q - Quarter Note
| E - Eight Note
|  - Dotted Note

************************************

Find guitar tabs and chords

A B C D E F G H I J K L M N O P Q R S T U V W X Y Z #