Interdimensional Summit by Dimmu Borgir

Interdimensional Summit tab by Dimmu Borgir

Guitar tabs

Tuning: D Tuning (D G C F A D)

Difficulty: Intermediate

DIMMU BORGIR

INTERDIMENSIONAL SUMMIT

DGCFAD

TABBED BY ANDHEREMBRACE





D|---------------------------------------------------------------------------|
A|---------------------------------------------------------------------------|
F|---------------------------------------------------------------------------|
C|-12--8--8-11--8--8--9--8--6--8--8--8--12--8--8-11--8--8--9--8--6--8--8--8--|
G|-10--6--6--9--6--6--7--6--4--6--6--6--10--6--6--9--6--6--7--6--4--6--6--6--|
D|-10--6--6--9--6--6--7--6--4--6--6--6--10--6--6--9--6--6--7--6--4--6--6--6--|



D|----------------------------------------------------------|
A|----------------------------------------------------------|
F|----------------------------------------------------------|
C|-12--8--8-11--8--8--9--8--6--8--8--8------9----------12---|
G|-10--6--6--9--6--6--7--6--4--6--6--6--7-7-7----10-10-10---|
D|-10--6--6--9--6--6--7--6--4--6--6--6--7-7-7----10-10-10---|
                    * *    * *




0:14


D|---------------------------------------------------------------------------|
A|---------------------------------------------------------------------------|
F|---------------------------------------------------------------------------|
C|-12--8--8-11--8--8--9--8--6--8--8--8--12--8--8-11--8--8--9--8--6--8--8--8--|
G|-10--6--6--9--6--6--7--6--4--6--6--6--10--6--6--9--6--6--7--6--4--6--6--6--|
D|-10--6--6--9--6--6--7--6--4--6--6--6--10--6--6--9--6--6--7--6--4--6--6--6--|



D|-------------------------------------------------------|
A|-------------------------------------------------------|
F|-------------------------------------------------------|
C|-12--8--8-11--8--8--9--8--6--8--8--8------9---------6--|
G|-10--6--6--9--6--6--7--6--4--6--6--6--7-7-7-----4-4-4--|
D|-10--6--6--9--6--6--7--6--4--6--6--6--7-7-7-----4-4-4--|
                    * *    * *





0:24


D|-----------------------------------------------------|
A|-5-5-7-------11---7------8---7-----11---7---8---8-8--|
F|-6-6-8-------12---8------9---8-----12---8---9---9-9--|
C|-X-x-X--------X---X------X---X------X---X---X---X-X--|
G|-4-4-6-------10---6------7---6-----10---6---7---7-7--|
D|-----------------------------------------------------|
      |      |     |     |


D|--------------------------------------------------------|
A|-5---7-------11---7------8---7------5---7---11---11-11--|
F|-6---8-------12---8------9---8------6---8---12---12-12--|
C|-X---X--------X---X------X---X------X---X----X----X--X--|
G|-4---6-------10---6------7---6------4---6---10---10-10--|
D|--------------------------------------------------------|
      |      |     |




0:37


D|---------------------------------------------------------------------------|
A|---------------------------------------------------------------------------|
F|---------------------------------------------------------------------------|
C|-12--8--8-11--8--8--9--8--6--8--8--8--12--8--8-11--8--8--9--8--6--8--8--8--|
G|-10--6--6--9--6--6--7--6--4--6--6--6--10--6--6--9--6--6--7--6--4--6--6--6--|
D|-10--6--6--9--6--6--7--6--4--6--6--6--10--6--6--9--6--6--7--6--4--6--6--6--|



D|----------------------------------------------------------|
A|----------------------------------------------------------|
F|----------------------------------------------------------|
C|-12--8--8-11--8--8--9--8--6--8--8--8------9----------12---|
G|-10--6--6--9--6--6--7--6--4--6--6--6--7-7-7----10-10-10---|
D|-10--6--6--9--6--6--7--6--4--6--6--6--7-7-7----10-10-10---|
                    * *    * *



0:47


D|---------------------------------------------------------------------------|
A|---------------------------------------------------------------------------|
F|---------------------------------------------------------------------------|
C|-12--8--8-11--8--8--9--8--6--8--8--8--12--8--8-11--8--8--9--8--6--8--8--8--|
G|-10--6--6--9--6--6--7--6--4--6--6--6--10--6--6--9--6--6--7--6--4--6--6--6--|
D|-10--6--6--9--6--6--7--6--4--6--6--6--10--6--6--9--6--6--7--6--4--6--6--6--|



D|--------------------------------------------------------------------------|
A|--------------------------------------------------------------------------|
F|--------------------------------------------------------------------------|
C|-12--8--8-11--8--8--9--8--6--8--8--8------9---------6--------9---------6--|
G|-10--6--6--9--6--6--7--6--4--6--6--6--7-7-7-----4-4-4----7-7-7-----4-4-4--|
D|-10--6--6--9--6--6--7--6--4--6--6--6--7-7-7-----4-4-4----7-7-7-----4-4-4--|
                    * *    * *   * *    * *





0:58


D|------------------------------------------------------------|
A|------------------------------------------------------------|
F|-8-8-8-8------------------8-8-8-8-6-6-6-6-------------------|
C|---------8-8-8-8--------------------------8-8-8-8-----------|
G|-----------------6-6-6-6--------------------------6-6-6-6---|
D|------------------------------------------------------------|


D|-------------------------------------------------------------------------|
A|-------------------------------------------------------------------------|
F|-6-6-6-6-5-5-5-5-5-5-5-5-5-5-5-5-5-5-6-6-5-5-5-5-5-5-5-5-5-5-5-5-5-5-6-6-|
C|---------6-6-6-6-6-6-6-6-6-6-6-6-6-6-6-6-6-6-6-6-6-6-6-6-6-6-6-6-6-6-6-6-|
G|-------------------------------------------------------------------------|
D|-------------------------------------------------------------------------|




1:05

D|------------------------------------------------------------|
A|------------------------------------------------------------|
F|-8-8-8-8------------------8-8-8-8-6-6-6-6-------------------|
C|---------8-8-8-8--------------------------8-8-8-8-----------|
G|-----------------6-6-6-6--------------------------6-6-6-6---|
D|------------------------------------------------------------|


D|---------------------------------------------------------------------|
A|---------------------------------------------------------------------|
F|-6-6-6-6-5-5-5-5-5-5-5-5-5-5-5-5-5-5-6-6-5-5-5-5-5-5-5-5-5-5---------|
C|---------6-6-6-6-6-6-6-6-6-6-6-6-6-6-6-6-6-6-6-6-6-6-6-6-6-6---------|
G|-------------------------------------------------------------4-4-4---|
D|-------------------------------------------------------------4-4-4---|
                                * * *



1:12


D|------------------------------------------------------------|
A|------------------------------------------------------------|
F|-8-8-8-8------------------8-8-8-8-6-6-6-6-------------------|
C|---------8-8-8-8--------------------------8-8-8-8-----------|
G|-----------------6-6-6-6--------------------------6-6-6-6---|
D|------------------------------------------------------------|


D|-------------------------------------------------------------------------|
A|-------------------------------------------------------------------------|
F|-6-6-6-6-5-5-5-5-5-5-5-5-5-5-5-5-5-5-6-6-5-5-5-5-5-5-5-5-5-5-5-5-5-5-6-6-|
C|---------6-6-6-6-6-6-6-6-6-6-6-6-6-6-6-6-6-6-6-6-6-6-6-6-6-6-6-6-6-6-6-6-|
G|-------------------------------------------------------------------------|
D|-------------------------------------------------------------------------|




1:18

D|------------------------------------------------------------|
A|------------------------------------------------------------|
F|-8-8-8-8------------------8-8-8-8-6-6-6-6-------------------|
C|---------8-8-8-8--------------------------8-8-8-8-----------|
G|-----------------6-6-6-6--------------------------6-6-6-6---|
D|------------------------------------------------------------|


D|---------------------------------------------------------------------|
A|---------------------------------------------------------------------|
F|-6-6-6-6-5-5-5-5-5-5-5-5-5-5-5-5-5-5-6-6-5-5-5-5-5-5-5-5-5-5---------|
C|---------6-6-6-6-6-6-6-6-6-6-6-6-6-6-6-6-6-6-6-6-6-6-6-6-6-6---------|
G|-------------------------------------------------------------4-4-4---|
D|-------------------------------------------------------------4-4-4---|
                                * * *





1:26


D|----------------------------------------------------------------------|
A|----------------------------------------------------------------------|
F|----------------------------------------------------------------------|
C|--------------------------8----------------------8--------8--------6--|
G|-8------11-------6--------6-------8------11------6-----6--6--6--6--4--|
D|-6-------9-------4----------------6-------9------------6--6--6--4-----|
                             *   *




1:39


D|-------------------------------------------------------------------------------------------------------|
A|-------------------------------------------------------------------------------------------------------|
F|-------------------------------------------------------___---------------------------------------------|
C|------------------------------------------------------/  \---------------------------------8--------6-|
G|-------------------4--4/8--6-----6--8--9---8--6---9--8-9-8\6-------------------4--4/8-6--6--6--6--6--4-|
D|-6----6--8--9--4----------------------------------------------6----6--8--9--4------------6--6--6--4----|
                                              *   *



1:54

D|-----------------------------------------------------------------------------------------|
A|-----------------------------------------------------------------------------------------|
F|-------------------------------------------------------___-------------------------------|
C|------------------------------------------------------/  \------------------------------|
G|-------------------4--4/8--6-----6--8--9---8--6---9--8-9-8\6-------------------4--4/8-6--|
D|-6----6--8--9--4----------------------------------------------6----6--8--9--4------------|




2:05


D|---------------------------------------------------------4----------5------|
A|---------------------------------------------------------4------------5----|
F|---------------------------------------------------------4--------------5--|
C|-5------------------------------5------------------------6-----------------|
G|-3---6---7----------------------3---6---7----------------6-----------------|
D|-----4---5--------------------------4---5----------------4-----------------|






2:22


D|-------------5----5-----------------8-----8--------------4------4-----4------4-------|
A|-------------5----5-----------------8-----8--------------4------4-----4------4-------|
F|-------------------------------------------------------------------------------------|
C|-6--7----------------7-10--------------------5--6---------------------------------6--|
G|-6--7--7-7-7----7----7-10--10-10-10----10----5--6--6-6-6----6-6----6-----6-6----6-6--|
D|-4--5--5-5-5----5----5--8---8--8--8-----8----3--4--4-4-4----4-4----4-----4-4----4-4--|
     * * *  *      * * *   *     * * *  * *  *   * *  *



D|-------------5----5-----------------8-----8--------------4------4-----4------4-------|
A|-------------5----5-----------------8-----8--------------4------4-----4------4-------|
F|-------------------------------------------------------------------------------------|
C|-6--7----------------7-10--------------------5--6---------------------------------6--|
G|-6--7--7-7-7----7----7-10--10-10-10----10----5--6--6-6-6----6-6----6-----6-6----6-6--|
D|-4--5--5-5-5----5----5--8---8--8--8-----8----3--4--4-4-4----4-4----4-----4-4----4-4--|
     * * *  *      * * *   *     * * *  * *  *   * *  *




D|-------------5----5-----------------8-----8--------------4------4-----4------4-------|
A|-------------5----5-----------------8-----8--------------4------4-----4------4-------|
F|-------------------------------------------------------------------------------------|
C|-6--7----------------7-10--------------------5--6---------------------------------6--|
G|-6--7--7-7-7----7----7-10--10-10-10----10----5--6--6-6-6----6-6----6-----6-6----6-6--|
D|-4--5--5-5-5----5----5--8---8--8--8-----8----3--4--4-4-4----4-4----4-----4-4----4-4--|
     * * *  *      * * *   *     * * *  * *  *   * *  *




D|-------------5----5-----------------8-----8--------------4------4-----4------4-----4-|
A|-------------5----5-----------------8-----8--------------4------4-----4------4-----4-|
F|-------------------------------------------------------------------------------------|
C|-6--7----------------7-10--------------------5--6------------------------------------|
G|-6--7--7-7-7----7----7-10--10-10-10----10----5--6--6-6-6----6-6----6-----6-6----6----|
D|-4--5--5-5-5----5----5--8---8--8--8-----8----3--4--4-4-4----4-4----4-----4-4----4----|
     * * *  *      * * *   *     * * *  * *  *   * *  *





2:48


D|---------------------------------------------------|
A|-5-5--7-------14---7------8---7-----11---7---8-----|
F|-6-6--8-------15---8------9---8-----12---8---9-----|
C|-X-x--X--------X---X------X---X------X---X---X-----|
G|-4-4--6-------13---6------7---6-----10---6---7-----|
D|---------------------------------------------------|
      |      |     |



D|------------------------------------------------------------|
A|-5---7-------11---7------8----------------------------------|
F|-6---8-------12---8------9----------------------------------|
C|-X---X--------X---X------X---------6--------8--8--------6---|
G|-4---6-------10---6------7---------4--6--6--6--6--4--4--4---|
D|-------------------------7------------4--4--------2--2--4---|
      |      |




3:05



D|------------------------------------------------------------|
A|------------------------------------------------------------|
F|-8-8-8-8------------------8-8-8-8-6-6-6-6-------------------|
C|---------8-8-8-8--------------------------8-8-8-8-----------|
G|-----------------6-6-6-6--------------------------6-6-6-6---|
D|------------------------------------------------------------|


D|-------------------------------------------------------------------------|
A|-------------------------------------------------------------------------|
F|-6-6-6-6-5-5-5-5-5-5-5-5-5-5-5-5-5-5-6-6-5-5-5-5-5-5-5-5-5-5-5-5-5-5-6-6-|
C|---------6-6-6-6-6-6-6-6-6-6-6-6-6-6-6-6-6-6-6-6-6-6-6-6-6-6-6-6-6-6-6-6-|
G|-------------------------------------------------------------------------|
D|-------------------------------------------------------------------------|




D|------------------------------------------------------------|
A|------------------------------------------------------------|
F|-8-8-8-8------------------8-8-8-8-6-6-6-6-------------------|
C|---------8-8-8-8--------------------------8-8-8-8-----------|
G|-----------------6-6-6-6--------------------------6-6-6-6---|
D|------------------------------------------------------------|


D|---------------------------------------------------------------------|
A|---------------------------------------------------------------------|
F|-6-6-6-6-5-5-5-5-5-5-5-5-5-5-5-5-5-5-6-6-5-5-5-5-5-5-5-5-5-5---------|
C|---------6-6-6-6-6-6-6-6-6-6-6-6-6-6-6-6-6-6-6-6-6-6-6-6-6-6---------|
G|-------------------------------------------------------------4-4-4---|
D|-------------------------------------------------------------4-4-4---|
                                * * *




D|------------------------------------------------------------|
A|------------------------------------------------------------|
F|-8-8-8-8------------------8-8-8-8-6-6-6-6-------------------|
C|---------8-8-8-8--------------------------8-8-8-8-----------|
G|-----------------6-6-6-6--------------------------6-6-6-6---|
D|------------------------------------------------------------|


D|-------------------------------------------------------------------------|
A|-------------------------------------------------------------------------|
F|-6-6-6-6-5-5-5-5-5-5-5-5-5-5-5-5-5-5-6-6-5-5-5-5-5-5-5-5-5-5-5-5-5-5-6-6-|
C|---------6-6-6-6-6-6-6-6-6-6-6-6-6-6-6-6-6-6-6-6-6-6-6-6-6-6-6-6-6-6-6-6-|
G|-------------------------------------------------------------------------|
D|-------------------------------------------------------------------------|




D|------------------------------------------------------------|
A|------------------------------------------------------------|
F|-8-8-8-8------------------8-8-8-8-6-6-6-6-------------------|
C|---------8-8-8-8--------------------------8-8-8-8-----------|
G|-----------------6-6-6-6--------------------------6-6-6-6---|
D|------------------------------------------------------------|


D|---------------------------------------------------------------------|
A|---------------------------------------------------------------------|
F|-6-6-6-6-5-5-5-5-5-5-5-5-5-5-5-5-5-5-6-6-5-5-5-5-5-5-5-5-5-5---------|
C|---------6-6-6-6-6-6-6-6-6-6-6-6-6-6-6-6-6-6-6-6-6-6-6-6-6-6---------|
G|-------------------------------------------------------------4-4-4---|
D|-------------------------------------------------------------4-4-4---|
                                * * *





3:31




L GALDER W/OCTAVER SET FOR +1 OCTAVE RIGHT IS SAME WITHOUT OCTAVER
1
D|-------------------------------------------------------------|
A|-------------------------------------------------------------|
F|-------------------------------------------------------------|
C|-/8---8--6--4--3----/6--4--3--1----/6--4--3--4----4--3--1--3-|
G|-------------------------------------------------------------|
D|-------------------------------------------------------------|

2 RHYTHM
D|-------------------------------------------------------------|
A|-------------------------------------------------------------|
F|-------------------------------------------------------------|
C|----------------------------------------------8--------------|
G|-8--------------11------------6---------------6--------------|
D|-6---------------9------------4------------------------------|



1
D|-----------------------------------------|
A|-----------------------------------------|
F|------------------------------------3-V--|
C|-3--1-------------1--3--4----8--\--------|
G|-------3--4----4-------------------------|
D|-----------------------------------------|

2
D|-----------------------------------------|
A|-----------------------------------------|
F|-----------------------------------------|
C|-----------------8--------8--------6-----|
G|--8------11------6-----6--6--6--6--4-----|
D|--6-------9------------6--6--6--4--------|
             *   *



3:45


L
D|-----------------------------------------4-4/6--------|
A|--------PH---------SPH--------/6--4-------------9--7--|
F|--------3~----------1~---------------5----------------|
C|------------------------------------------------------|
G|-4-3-4-------4-3-4------4-3---------------------------|
D|------------------------------------------------------|
    *      *    *

D|------------------------------------------------------|
A|--------PH---------SPH-----------------4--4/7---6--4--|
F|--------3~----------1~-------/6--5--------------------|
C|------------------------------------6-----------------|
G|-4-3-4-------4-3-4------4-3---------------------------|
D|------------------------------------------------------|
    *      *    *

3RHYTHM
D|------------------------------------------------------|
A|------------------------------------------------------|
F|------------------------------------------------------|
C|----------------------------------------------8-------|
G|-8--------------11------------6---------------6-------|
D|-6---------------9------------4-----------------------|


                    __
L                   / \
D|-9-6---9-6---6-9-9/13-9---13-9-13-11-13-11-9-/14-11----14-11---11-14-11--13--14--16-|
A|-----6-----6------------9---------------------------11-------11---------------------|
F|------------------------------------------------------------------------------------|
C|------------------------------------------------------------------------------------|
G|------------------------------------------------------------------------------------|
D|------------------------------------------------------------------------------------|

R
D|---------------------------------------------------------------------------|
A|---------------------------------------------------------------------------|
F|-6-3---6-3---3-6-6/10-6---10-6-10-8-10-8-6-/11-8---11---8-11-8--10--12--13-|
C|-----3-----3------------6------------------------8----8--------------------|
G|---------------------------------------------------------------------------|
D|---------------------------------------------------------------------------|

3
D|-----------------------------------------|
A|-----------------------------------------|
F|-----------------------------------------|
C|-----------------8-----8--10---9--13-----|
G|--8------11------6-----6---8---7--11-----|
D|--6-------9------------------------------|





3:59



  T ___________  T ___________  T _________  T ___________  T ___________  T _________
L  /      \   /      \   /     \  /      \   /      \   /     \
D|-21-18-17-18-17-18-21-18-17-18-17-18-21-18-17-18-17-21-18-17-18-17-18-21-18-17-18-17-18-21-18-17-18-17----|
A|-------------------------------------------------------------------------------------------------------15v|
F|----------------------------------------------------------------------------------------------------------|
C|----------------------------------------------------------------------------------------------------------|
G|----------------------------------------------------------------------------------------------------------|
D|----------------------------------------------------------------------------------------------------------|

R
D|--T--__________-----T_____________----T-________-----T-___________----T--___________-----T-________-------|
A|---/      \-----/      \-----/    \-----/      \-----/      \-----/    \------|
F|-18-15-14-15-14-15-18-15-14-15-14-15-18-15-14-15-14-18-15-14-15-14-15-18-15-14-15-14-15-18-15-14-15-14----|
C|-------------------------------------------------------------------------------------------------------11v|
G|----------------------------------------------------------------------------------------------------------|
D|----------------------------------------------------------------------------------------------------------|


3
D|------------------------------------------------------------|
A|------------------------------------------------------------|
F|------------------------------------------------------------|
C|11-11-8--8--11-11-8--8--9-9-8--11-11-8--8--8-8-8--8--8-8-8--|
G|-9--9-6--6---9--9-6--6--7-7-6---9--9-6--6--6-6-6--6--6-6-6--|
D|-9--9-6--6---9--9-6--6--7-7-6---9--9-6--6--6-6-6--6--6-6-6--|
  * * * *  * * * * * * *  * * * * * * * * * * *




4:02


D|----------------------------------------------------------|
A|----------------------------------------------------------|
F|----------------------------------------------------------|
C|11-11-8--8--11-11-8--8--9-9-8--4-4-4--4--4-4-4--4--4-4-4--|
G|-9--9-6--6---9--9-6--6--7-7-6--4-4-4--4--4-4-4--4--4-4-4--|
D|-9--9-6--6---9--9-6--6--7-7-6--2-2-2--2--2-2-2--2--2-2-2--|
  * * * *  * * * * * * * * * * * * * * * * * *

D|------------------------------------------------------------|
A|------------------------------------------------------------|
F|------------------------------------------------------------|
C|11-11-8--8--11-11-8--8--9-9-8--11-11-8--8--8-8-8--8--8-8-8--|
G|-9--9-6--6---9--9-6--6--7-7-6---9--9-6--6--6-6-6--6--6-6-6--|
D|-9--9-6--6---9--9-6--6--7-7-6---9--9-6--6--6-6-6--6--6-6-6--|
  * * * *  * * * * * * *  * * * * * * * * * * *


D|-----------------------------------------------3----|
A|-----------------------------------------------3----|
F|-----------------------------------------------3----|
C|11-11-8--8--11-11-8--8--9-9-8--4-4-4---4-4-4---5----|
G|-9--9-6--6---9--9-6--6--7-7-6--4-4-4---4-4-4---5----|
D|-9--9-6--6---9--9-6--6--7-7-6--2-2-2---2-2-2---3----|
  * * * *  * * * * * * * * * *  * * *




4;12


D|---------------------------------------------------------------------------|
A|---------------------------------------------------------------------------|
F|---------------------------------------------------------------------------|
C|-12--8--8-11--8--8--9--8--6--8--8--8--12--8--8-11--8--8--9--8--6--8--8--8--|
G|-10--6--6--9--6--6--7--6--4--6--6--6--10--6--6--9--6--6--7--6--4--6--6--6--|
D|-10--6--6--9--6--6--7--6--4--6--6--6--10--6--6--9--6--6--7--6--4--6--6--6--|



D|----------------------------------------------------------|
A|----------------------------------------------------------|
F|----------------------------------------------------------|
C|-12--8--8-11--8--8--9--8--6--8--8--8------9----------12---|
G|-10--6--6--9--6--6--7--6--4--6--6--6--7-7-7----10-10-10---|
D|-10--6--6--9--6--6--7--6--4--6--6--6--7-7-7----10-10-10---|
                    * *    * *



D|---------------------------------------------------------------------------|
A|---------------------------------------------------------------------------|
F|---------------------------------------------------------------------------|
C|-12--8--8-11--8--8--9--8--6--8--8--8--12--8--8-11--8--8--9--8--6--8--8--8--|
G|-10--6--6--9--6--6--7--6--4--6--6--6--10--6--6--9--6--6--7--6--4--6--6--6--|
D|-10--6--6--9--6--6--7--6--4--6--6--6--10--6--6--9--6--6--7--6--4--6--6--6--|



D|--------------------------------------------------------------------------7---|
A|--------------------------------------------------------------------------7---|
F|--------------------------------------------------------------------------8---|
C|-12--8--8-11--8--8--9--8--6--8--8--8------9---------6--------9---------9--9---|
G|-10--6--6--9--6--6--7--6--4--6--6--6--7-7-7-----4-4-4----7-7-7-----4-4-4--7---|
D|-10--6--6--9--6--6--7--6--4--6--6--6--7-7-7-----4-4-4----7-7-7-----4-4-4--7---|
                    * *    * *   * *    * *



Tab helpful? buy me a coffee :) https://www.paypal.me/andherembrace


*****************************************
/=SLIDE
T=TAP
PH=PINCH HARMONICS
*=palm mute
)=bend
~=vibrato
  _
^,/ \=hammer on/pulloff
*****************************************

Find guitar tabs and chords

A B C D E F G H I J K L M N O P Q R S T U V W X Y Z #