Entrance by Dimmu Borgir

Entrance bass tab by Dimmu Borgir

Bass tabs

ENTRANCE (Bassline)
As recorded by Dimmu Borgir
(From the 1997 Album ENTHRONE DARKNESS TRIUMPHANT)

Transcribed by Hannes_666@giga4u.de


Words and Music by Dimmu Borgir

Gtr I (G) - 'Bass'

 Intro
 Q=135
 4/4
 Gtr I
 E S S S S E S S S S E S S  E S S S S E S S S S E S S
|---------------------------|---------------------------|
|---------------------------|---------------------------|
|---------------------------|---------------------------|
|-5-5-5-5-5-5-5-5-5-5-5-5-5-|-----------1-1-1-1-1-1-1-1-|
|---------------------------|-3-3-3-3-3-----------------|


 E S S S S E S S S S E S S  E S S S S E S S S S E S S
|---------------------------|------------------------------|
|---------------------------|------------------------------|
|---------------------------|------------------------------|
|-5-5-5-5-5-5-5-5-5-5-5-5-5-|-----------1-1-1-1-1-1-1-1----|
|---------------------------|-3-3-3-3-3--------------------|


 E S S S S E S S S S E S S  E S S S S E S S S S E S S
|---------------------------|---------------------------|
|---------------------------|---------------------------|
|---------------------------|---------------------------|
|-5-5-5-5-5-5-5-5-5-5-5-5-5-|-----------1-1-1-1-1-1-1-1-|
|---------------------------|-3-3-3-3-3-----------------|


 E S S S S E S S S S E S S  E S S S S E S S S S E S S
|---------------------------|------------------------------||
|---------------------------|------------------------------||
|---------------------------|------------------------------||
|-5-5-5-5-5-5-5-5-5-5-5-5-5-|-----------1-1-1-1-1-1-1-1----||
|---------------------------|-3-3-3-3-3--------------------||


 Verse 1
 W     H
|----------|-----------|----------|-----------|
|----------|-----------|----------|-----------|
|----------|-----------|----------|-----------|
|-5--------|------1----|-5--------|------1----|
|----------|-3---------|----------|-3---------|


 W     H
|----------|-----------|----------|-----------|
|----------|-----------|----------|-----------|
|----------|-----------|----------|-----------|
|-5--------|------1----|-5--------|------1----|
|----------|-3---------|----------|-3---------|


 W     H
|----------|-----------|----------|-----------|
|----------|-----------|----------|-----------|
|----------|-----------|----------|-----------|
|-5--------|------1----|-5--------|------1----|
|----------|-3---------|----------|-3---------|


 W     H
|----------|-----------|----------|-----------|
|----------|-----------|----------|-----------|
|----------|-----------|----------|-----------|
|-5--------|------1----|-5--------|------1----|
|----------|-3---------|----------|-3---------|


 Q.  E
|------------------|-------------|------------------|-------------|
|------------------|-------------|------------------|-------------|
|------------------|-------------|------------------|-------------|
|-3----3-3---3-3-5-|-7----7--7-5-|-3----3-3---3-3-5-|-7----7--7-5-|
|------------------|-------------|------------------|-------------|


 Q.  E
|------------------|-------------|------------------|-------------||
|------------------|-------------|------------------|-------------||
|------------------|-------------|------------------|-------------||
|-3----3-3---3-3-5-|-7----7--7-5-|-3----3-3---3-3-5-|-7----7--7-5-||
|------------------|-------------|------------------|-------------||


 Verse 2
 Q.  E
|------------------|-------------|------------------|-------------|
|------------------|-------------|------------------|-------------|
|------------------|-------------|------------------|-------------|
|-3----3-3---3-3-5-|-7----7--7-5-|-3----3-3---3-3-5-|-7----7--7-5-|
|------------------|-------------|------------------|-------------|


 Q.  E
|------------------|-------------|------------------|-------------|
|------------------|-------------|------------------|-------------|
|------------------|-------------|------------------|-------------|
|-3----3-3---3-3-5-|-7----7--7-5-|-3----3-3---3-3-5-|-7----7--7-5-|
|------------------|-------------|------------------|-------------|


 Q.  E
|------------------|-------------|------------------|-------------|
|------------------|-------------|------------------|-------------|
|------------------|-------------|------------------|-------------|
|-3----3-3---3-3-5-|-7----7--7-5-|-3----3-3---3-3-5-|-7----7--7-5-|
|------------------|-------------|------------------|-------------|


 Q.  E
|------------------|-------------|------------------|-------------|
|------------------|-------------|------------------|-------------|
|------------------|-------------|------------------|-------------|
|-3----3-3---3-3-5-|-7----7--7-5-|-3----3-3---3-3-5-|-7----7--7-5-|
|------------------|-------------|------------------|-------------|


 W     H
|----------|-----------|----------|-----------|
|----------|-----------|----------|-----------|
|----------|-----------|----------|-----------|
|-5--------|------1----|-5--------|------1----|
|----------|-3---------|----------|-3---------|


 W     H
|----------|-----------|----------|-----------|
|----------|-----------|----------|-----------|
|----------|-----------|----------|-----------|
|-5--------|------1----|-5--------|------1----|
|----------|-3---------|----------|-3---------|


 W     H
|----------|-----------|----------|-----------|
|----------|-----------|----------|-----------|
|----------|-----------|----------|-----------|
|-5--------|------1----|-5--------|------1----|
|----------|-3---------|----------|-3---------|


 W     H
|----------|-----------|----------|-----------||
|----------|-----------|----------|-----------||
|----------|-----------|----------|-----------||
|-5--------|------1----|-5--------|------1----||
|----------|-3---------|----------|-3---------||


 Interlude
 Q=165
 Q H.    W     W     W
|------------|----------|----------|----------|
|------------|----------|----------|----------|
|------------|----------|----------|----------|
|-0----------|----------|----------|----------|
|------------|----------|----------|----------|


 W     H.   Q  W     +W
|----------|------------|----------|--------|
|----------|------------|----------|--------|
|-7--------|-3-------7--|-5--------|-(5)----|
|----------|------------|----------|--------|
|----------|------------|----------|--------|


 |-3-| |-3-| |-3-| |-3-|  |-3-| |-3-| |-3-| |-3-|
 E
|-------------------------|-------------------------|
|-------------------------|-------------------------|
|-7-7-7-7-7-7-7-7-7-7-7-7-|-3-3-3-3-3-3-3-3-3-7-7-7-|
|-------------------------|-------------------------|
|-------------------------|-------------------------|


 |-3-| |-3-| |-3-| |-3-|  |-3-| |-3-| |-3-| |-3-|
 E
|-------------------------|----------------------------|
|-------------------------|----------------------------|
|-5-5-5-5-5-5-5-5-5-5-5-5-|-5-5-5-5-5-5-5-5-5-5-5-5----|
|-------------------------|----------------------------|
|-------------------------|----------------------------|


 |-3-| |-3-| |-3-| |-3-|  |-3-| |-3-| |-3-| |-3-|
 E
|-------------------------|-------------------------|
|-------------------------|-------------------------|
|-7-7-7-7-7-7-7-7-7-7-7-7-|-3-3-3-3-3-3-3-3-3-7-7-7-|
|-------------------------|-------------------------|
|-------------------------|-------------------------|


 |-3-| |-3-| |-3-| |-3-|  |-3-| |-3-| |-3-| |-3-|
 E
|-------------------------|----------------------------|
|-------------------------|----------------------------|
|-5-5-5-5-5-5-5-5-5-5-5-5-|-5-5-5-5-5-5-5-5-5-5-5-5----|
|-------------------------|----------------------------|
|-------------------------|----------------------------|


 |-3-| |-3-| |-3-| |-3-|  |-3-| |-3-| |-3-| |-3-|
 E
|-------------------------|-------------------------|
|-------------------------|-------------------------|
|-7-7-7-7-7-7-7-7-7-7-7-7-|-3-3-3-3-3-3-3-3-3-7-7-7-|
|-------------------------|-------------------------|
|-------------------------|-------------------------|


 |-3-| |-3-| |-3-| |-3-|  |-3-| |-3-| |-3-| |-3-|
 E
|-------------------------|----------------------------|
|-------------------------|----------------------------|
|-5-5-5-5-5-5-5-5-5-5-5-5-|-5-5-5-5-5-5-5-5-5-5-5-5----|
|-------------------------|----------------------------|
|-------------------------|----------------------------|


 |-3-| |-3-| |-3-| |-3-|  |-3-| |-3-| |-3-| |-3-|
 E
|-------------------------|-------------------------|
|-------------------------|-------------------------|
|-7-7-7-7-7-7-7-7-7-7-7-7-|-3-3-3-3-3-3-3-3-3-7-7-7-|
|-------------------------|-------------------------|
|-------------------------|-------------------------|


 H
 |-3-| |-3-| |-3-| |-3-|  |-3-| |-3-| |-3-| |-3-|
 E
|-------------------------|----------------------------||
|-------------------------|----------------------------||
|-5-5-5-5-5-5-5-5-5-5-5-5-|-5-5-5-5-5-5-5-5-5-5-5-5----||
|-------------------------|----------------------------||
|-------------------------|----------------------------||


 Verse 3
 Q=135
 W     H.   Q  W     +Q  Q Q Q
|----------|------------|----------|---------------|
|----------|------------|----------|---------------|
|----------|------------|----------|---------------|
|-5--------|---------0--|----------|------0--1--3--|
|----------|-1----------|-3--------|-(3)-----------|


 W     H.   Q  W     +Q  Q Q Q
|----------|------------|----------|---------------|
|----------|------------|----------|---------------|
|----------|------------|----------|---------------|
|-5--------|---------0--|----------|------0--1--3--|
|----------|-1----------|-3--------|-(3)-----------|


 W     H.   Q  W     +Q  Q Q Q
|----------|------------|----------|---------------|
|----------|------------|----------|---------------|
|----------|------------|----------|---------------|
|-5--------|---------0--|----------|------0--1--3--|
|----------|-1----------|-3--------|-(3)-----------|


 W     H.   Q  W     +Q  Q Q Q
|----------|------------|----------|---------------|
|----------|------------|----------|---------------|
|----------|------------|----------|---------------|
|-5--------|---------0--|----------|------0--1--3--|
|----------|-1----------|-3--------|-(3)-----------|


 E
|-----------------|-----------------|-----------------|-----------------|
|-----------------|-----------------|-----------------|-----------------|
|-----------------|-----------------|-----------------|-----------------|
|-5-5-5-5-5-5-5-5-|-----------------|-----------------|-----0-0-1-1-3-3-|
|-----------------|-1-1-1-1-1-1-1-1-|-3-3-3-3-3-3-3-3-|-3-3-------------|


 E
|-----------------|-----------------|-----------------|-----------------|
|-----------------|-----------------|-----------------|-----------------|
|-----------------|-----------------|-----------------|-----------------|
|-5-5-5-5-5-5-5-5-|-----------------|-----------------|-----0-0-1-1-3-3-|
|-----------------|-1-1-1-1-1-1-1-1-|-3-3-3-3-3-3-3-3-|-3-3-------------|


 E
|-----------------|-----------------|-----------------|-----------------|
|-----------------|-----------------|-----------------|-----------------|
|-----------------|-----------------|-----------------|-----------------|
|-5-5-5-5-5-5-5-5-|-----------------|-----------------|-----0-0-1-1-3-3-|
|-----------------|-1-1-1-1-1-1-1-1-|-3-3-3-3-3-3-3-3-|-3-3-------------|


 E
|-----------------|-----------------|-----------------|-----------------|
|-----------------|-----------------|-----------------|-----------------|
|-----------------|-----------------|-----------------|-----------------|
|-5-5-5-5-5-5-5-5-|-----------------|-----------------|-----0-0-1-1-3-3-|
|-----------------|-1-1-1-1-1-1-1-1-|-3-3-3-3-3-3-3-3-|-3-3-------------|


 Q.  E
|------------------|-------------|------------------|-------------|
|------------------|-------------|------------------|-------------|
|------------------|-------------|------------------|-------------|
|-3----3-3---3-3-5-|-7----7--7-5-|-3----3-3---3-3-5-|-7----7--7-5-|
|------------------|-------------|------------------|-------------|


 Q.  E
|------------------|-------------|------------------|-------------||
|------------------|-------------|------------------|-------------||
|------------------|-------------|------------------|-------------||
|-3----3-3---3-3-5-|-7----7--7-5-|-3----3-3---3-3-5-|-7----7--7-5-||
|------------------|-------------|------------------|-------------||


 Verse 4
 W     H.   Q  W     +Q  Q Q Q
|----------|------------|----------|---------------|
|----------|------------|----------|---------------|
|----------|------------|----------|---------------|
|-5--------|---------0--|----------|------0--1--3--|
|----------|-1----------|-3--------|-(3)-----------|


 W     H.   Q  W     +Q  Q Q Q
|----------|------------|----------|---------------|
|----------|------------|----------|---------------|
|----------|------------|----------|---------------|
|-5--------|---------0--|----------|------0--1--3--|
|----------|-1----------|-3--------|-(3)-----------|


 W     H.   Q  W     +Q  Q Q Q
|----------|------------|----------|---------------|
|----------|------------|----------|---------------|
|----------|------------|----------|---------------|
|-5--------|---------0--|----------|------0--1--3--|
|----------|-1----------|-3--------|-(3)-----------|


 W     H.   Q  W     +Q  Q Q Q
|----------|------------|----------|---------------|
|----------|------------|----------|---------------|
|----------|------------|----------|---------------|
|-5--------|---------0--|----------|------0--1--3--|
|----------|-1----------|-3--------|-(3)-----------|


 E
|-----------------|-----------------|-----------------|-----------------|
|-----------------|-----------------|-----------------|-----------------|
|-----------------|-----------------|-----------------|-----------------|
|-5-5-5-5-5-5-5-5-|-------1-1-1-1-1-|-5-5-5-5-5-5-5-5-|-------1-1-1-1-1-|
|-----------------|-3-3-3-----------|-----------------|-3-3-3-----------|


 E
|-----------------|-----------------|-----------------|-----------------||
|-----------------|-----------------|-----------------|-----------------||
|-----------------|-----------------|-----------------|-----------------||
|-5-5-5-5-5-5-5-5-|-------1-1-1-1-1-|-5-5-5-5-5-5-5-5-|-------1-1-1-1-1-||
|-----------------|-3-3-3-----------|-----------------|-3-3-3-----------||


 Outro
 E S S S S E S S S S E S S  E S S S S E S S S S E S S
|---------------------------|---------------------------|
|---------------------------|---------------------------|
|---------------------------|---------------------------|
|-5-5-5-5-5-5-5-5-5-5-5-5-5-|-----------1-1-1-1-1-1-1-1-|
|---------------------------|-3-3-3-3-3-----------------|


 E S S S S E S S S S E S S  E S S S S E S S S S E S S
|---------------------------|------------------------------|
|---------------------------|------------------------------|
|---------------------------|------------------------------|
|-5-5-5-5-5-5-5-5-5-5-5-5-5-|-----------1-1-1-1-1-1-1-1----|
|---------------------------|-3-3-3-3-3--------------------|


 E S S S S E S S S S E S S  E S S S S E S S S S E S S
|---------------------------|---------------------------|
|---------------------------|---------------------------|
|---------------------------|---------------------------|
|-5-5-5-5-5-5-5-5-5-5-5-5-5-|-----------1-1-1-1-1-1-1-1-|
|---------------------------|-3-3-3-3-3-----------------|


 E S S S S E S S S S E S S  E S S S S E S S S S E S S  W
|---------------------------|---------------------------|------*|
|---------------------------|---------------------------|------*|
|---------------------------|---------------------------|------*|
|-5-5-5-5-5-5-5-5-5-5-5-5-5-|-----------1-1-1-1-1-1-1-1-|-5----*|
|---------------------------|-3-3-3-3-3-----------------|------*|



Duration 🏷Legend
---------------
W - whole; H - half; Q - quarter; E - 8th; S - 16th; T - 32nd; X - 64th; a - acciaccatura
+ - note tied to previous; . - note dotted; .. - note double dotted
Uncapitalized letters represent notes that are staccato (1/2 duration)
Irregular groupings are notated above the duration line
Duration letters will always appear directly above the note/fret number it represents the
duration for. Duration letters with no fret number below them represent rests. Multi-
bar rests are notated in the form Wxn, where n is the number of bars to rest for. Low
melody durations appear below the staff

Tablature 🏷Legend
----------------
 h  - hammer-on
 p  - pull-off
 b  - bend
 pb - pre-bend
 r  - bend release (if no number after the r, then release immediately)
 /\ - slide into or out of (from/to "nowhere")
 s  - legato slide
 S  - shift slide
 - natural harmonic
[n] - artificial harmonic
n(n) - tapped harmonic
 ~  - vibrato
 tr - trill
 T  - tap
 TP - trem. picking
 PM - palm muting
\n/ - tremolo bar dip; n = amount to dip
 \n - tremolo bar down
 n/ - tremolo bar up
/n\ - tremolo bar inverted dip
 =  - hold bend; also acts as connecting device for hammers/pulls
 - volume swell (louder/softer)
 x  - on rhythm slash represents muted slash
 o  - on rhythm slash represents single note slash

Misc 🏷Legend
-----------
 | - bar
|| - double bar
||o - repeat start
o|| - repeat end
*| - double bar (ending)
 : - bar (freetime)
 $ - Segno
 & - Coda
Tempo markers - = BPM(8/16=s8/s16), where s8 = swing 8ths, s16 = swing 16ths

Find guitar tabs and chords

A B C D E F G H I J K L M N O P Q R S T U V W X Y Z #