Council Of Wolves And Snakes by Dimmu Borgir

Council Of Wolves And Snakes tab by Dimmu Borgir

Guitar tabs

Tuning: D Tuning (D G C F A D)

Difficulty: Novice


D|---------------------------------------------------------------------------------|
A|--------------------------------------------------------------12--11-~~~---------|
F|------------------12---11---10---9-~-------------------9--8----------------------|
C|----------9---8---------------------------------9--------------------------------|
G|------7--------------------------------------7-----10----------------------------|
D|--0--------------------------------------0---------------------------------------|



D|---------------------------------------------------------------------------------|
A|--------------------------------------------------------------12--11-~~~---------|
F|------------------12---11---10---9-~-------------------9--8----------------------|
C|----------9---8---------------------------------9--------------------------------|
G|------7--------------------------------------7-----10----------------------------|
D|--0--------------------------------------0---------------------------------------|





0:21



1
D|------------------------------------------------------------------|
A|-----------------///--///--///--///-------------------grad bend:-|
F|---------///-///--12---11---10---9--------------------------------|
C|-----///--9---8---------------------------------------------------|
G|-///--7-----------------------------------------------------------|
D|--0---------------------------------------------------------------|

2
D|------------------------------------------------------------------|
A|------------------------------------------------------------------|
F|------------------------------------------------------------------|
C|------------------------------------------------------------------|
G|-2----------------------------------------------------------------|
D|-0----------------------------------------------------------------|


1
D|----------------------------///--///------------------------------|
A|------------------///-///---12---11-------------------grad bend:-|
F|---------///-------9---8------------------------------------------|
C|-----///--9--///--------------------------------------------------|
G|-///--7------10---------------------------------------------------|
D|--0---------------------------------------------------------------|

2
D|---------------------------------------------------------------|
A|---------------------------------------------------------------|
F|---------------------------------------------------------------|
C|---------------------------------------------------------------|
G|---------------------------------------------------------------|
D|---------------------------------------------------------------|




1
D|------------------------------------------------------------------|
A|-----------------///--///--///--///-------------------grad bend:-|
F|---------///-///--12---11---10---9--------------------------------|
C|-----///--9---8---------------------------------------------------|
G|-///--7-----------------------------------------------------------|
D|--0---------------------------------------------------------------|

2
D|------------------------------------------------------------------|
A|------------------------------------------------------------------|
F|------------------------------------------------------------------|
C|------------------------------------------------------------------|
G|-2----------------------------------------------------------------|
D|-0----------------------------------------------------1---1-------|


1
D|----------------------------///--///----------------------|
A|------------------///-///---12---11-----------grad bend:-|
F|---------///-------9---8----------------------------------|
C|-----///--9--///------------------------------------------|
G|-///--7------10-------------------------------------------|--------------------|
D|--0-------------------------------------------------------|--------------------|
                              |--------------------|
2                              |-5-8-5-4-7-4--------|
D|----------------------------------------------------------|--------------3-6---|
A|----------------------------------------------------------|--------------------|
F|----------------------------------------------------------| * * * * * * * *
C|----------------------------------------------------------|
G|-2--------------------------------------------------------|
D|-0--------------------------------------------------------|







0:43



1
D|------------------------------------------------------------------|
A|-----------------///--///--///--///-------------------grad bend:-|
F|---------///-///--12---11---10---9--------------------------------|
C|-----///--9---8---------------------------------------------------|
G|-///--7-----------------------------------------------------------|
D|--0---------------------------------------------------------------|

2
D|------------------------------------------------------------------|
A|------------------------------------------------------------------|
F|------------------------------------------------------------------|
C|--------------------------------------------5-8-5-4-7-4-----------|
G|---------2------------2----3----------2-----------------3-6-------|
D|-0--0----0----0--0----0----1--0--0----0---------------------------|
  * *     * *      * *     * * * * * * * *




1
D|----------------------------///--///--------------------------------------------------------|
A|------------------///-///---12---11-grad bend:---------------------------------------------|
F|---------///-------9---8--------------------------------------------------------------------|
C|-----///--9--///---------------------------------5-8-5-4-7-4------8-8-11-8--7-7-10-7--------|
G|-///--7------10----------------------------------------------3-6----------------------6-6-8-|
D|--0-----------------------------------------------------------------------------------------|
                          * * * * * * * * * * * * * * * * * * *
2
D|--------------------------------------------------------------------------------------------|
A|--------------------------------------------------------------------------------------------|
F|--------------------------------------------------------------------------------------------|
C|-------------------------------------------------5-8-5-4-7-4------5-5-8-5-4-4-7-4-----------|
G|---------2------------2----3----------2----------------------3-6------------------3-3-6-----|
D|-0--0----0----0--0----0----1--0--0----0-----------------------------------------------------|
  * *     * *      * *        * * * * * * * * * * * * * * * * * * *




0:55


1
D|------------------------------------------------------------------|
A|-----------------///--///--///--///-------------------grad bend:-|
F|---------///-///--12---11---10---9--------------------------------|
C|-----///--9---8---------------------------------------------------|
G|-///--7-----------------------------------------------------------|
D|--0---------------------------------------------------------------|

2
D|------------------------------------------------------------------|
A|------------------------------------------------------------------|
F|------------------------------------------------------------------|
C|--------------------------------------------5-8-5-4-7-4-----------|
G|---------2------------2----3----------2-----------------3-6-------|
D|-0--0----0----0--0----0----1--0--0----0---------------------------|
  * *     * *      * *     * * * * * * * *



1
D|----------------------------///--///--------------------------------------------------------|
A|------------------///-///---12---11-grad bend:---------------------------------------------|
F|---------///-------9---8--------------------------------------------------------------------|
C|-----///--9--///---------------------------------5-8-5-4-7-4------8-8-11-8--7-7-10-7--------|
G|-///--7------10----------------------------------------------3-6----------------------6-6-8-|
D|--0-----------------------------------------------------------------------------------------|
                          * * * * * * * * * * * * * * * * * * *
2
D|--------------------------------------------------------------------------------------------|
A|--------------------------------------------------------------------------------------------|
F|--------------------------------------------------------------------------------------------|
C|-------------------------------------------------5-8-5-4-7-4------5-5-8-5-4-4-7-4-----------|
G|---------2------------2----3----------2----------------------3-6------------------3-3-6-----|
D|-0--0----0----0--0----0----1--0--0----0-----------------------------------------------------|
  * *     * *      * *        * * * * * * * * * * * * * * * * * * *





1:18



D|-----------------------------------------------------------------|
A|-------------///--///----------///---///---///--///--------------|
F|---------///--9---12-----------13----12----10----9----///--///---|
C|-----///--9-------------------------------------------10----9----|
G|-///--7----------------------------------------------------------|
D|--0--------------------------------------------------------------|



D|-------------------------------------------------///---///-------|
A|-------------///--///----------///---///---///---13----12----///-|
F|---------///--9---12-----------13----12----13----------------10--|
C|-----///--9------------------------------------------------------|
G|-///--7----------------------------------------------------------|
D|--0--------------------------------------------------------------|



D|------------------------------------------------------------------|
A|------------------------------------------------------------------|
F|------------------------------------------------------------------|
C|--------------------------------------------5-8-5-4-7-4-----------|
G|---------2------------2----3----------2-----------------3-6-------|
D|-0--0----0----0--0----0----1--0--0----0---------------------------|
  * *     * *      * *     * * * * * * * *


1
D|-----------------------------------------------|--------------------------------------------|
A|-----------------------------------------------|--------------------------------------------|
F|-----------------------------------------------|--------------------------------------------|
C|-----------------------------------------------|-5-8-5-4-7-4------8-8-11-8--7-7-10-7--------|
G|-----------------------------------------------|-------------3-6----------------------6-6-8-|
D|-----------------------------------------------|--------------------------------------------|
                          * * * * * * * * * * * * * * * * * * *
2
D|-----------------------------------------------|--------------------------------------------|
A|-----------------------------------------------|--------------------------------------------|
F|-----------------------------------------------|--------------------------------------------|
C|-----------------------------------------------|-5-8-5-4-7-4------5-5-8-5-4-4-7-4-----------|
G|---------2------------2----3----------2--------|-------------3-6------------------3-3-6-----|
D|-0--0----0----0--0----0----1--0--0----0--------|--------------------------------------------|
  * *     * *      * *        * * * * * * * * * * * * * * * * * * *



D|------------------------------------------------------------------|
A|------------------------------------------------------------------|
F|------------------------------------------------------------------|
C|--------------------------------------------5-8-5-4-7-4-----------|
G|---------2------------2----3----------2-----------------3-6-------|
D|-0--0----0----0--0----0----1--0--0----0---------------------------|
  * *     * *      * *     * * * * * * * *


1
D|-----------------------------------------------|--------------------------------------------|
A|-----------------------------------------------|--------------------------------------------|
F|-----------------------------------------------|--------------------------------------------|
C|-----------------------------------------------|-5-8-5-4-7-4------8-8-11-8--7-7-10-7--------|
G|-----------------------------------------------|-------------3-6----------------------6-6-8-|
D|-----------------------------------------------|--------------------------------------------|
                          * * * * * * * * * * * * * * * * * * *
2
D|-----------------------------------------------|--------------------------------------------|
A|-----------------------------------------------|--------------------------------------------|
F|-----------------------------------------------|--------------------------------------------|
C|-----------------------------------------------|-5-8-5-4-7-4------5-5-8-5-4-4-7-4-----------|
G|---------2------------2----3----------2--------|-------------3-6------------------3-3-6-----|
D|-0--0----0----0--0----0----1--0--0----0--------|--------------------------------------------|
  * *     * *      * *        * * * * * * * * * * * * * * * * * * *






2:02




D|-----------------------------------------------------------------|
A|-------------///--///----------///---///---///--///--------------|
F|---------///--9---12-----------13----12----10----9----///--///---|
C|-----///--9-------------------------------------------10----9----|
G|-///--7----------------------------------------------------------|
D|--0--------------------------------------------------------------|


D|-------------------------------------------------///---///-------|
A|-------------///--///----------///---///---///---13----12----///-|
F|---------///--9---12-----------13----12----13----------------10--|
C|-----///--9------------------------------------------------------|
G|-///--7----------------------------------------------------------|
D|--0--------------------------------------------------------------|





2:13



1                        DIST.
D|-----------------------------------------------///------------------|
A|----------------------------------------9------10---///-------------|
F|------------------------------8----------------------9----///--///--|
C|----------6--------9------6---------9---------------------10----7---|
G|------6--------6----------------------------------------------------|
D|-4------------------------------------------------------------------|

2
D|--------------------------------------------------------------------|
A|--------------------------------------------------------------------|
F|--------------------------------------------------------------------|
C|--------------------------------------------------------------------|
G|-----------------------------------------------7----7----7----7-----|
D|-----------------------------------------------5----5----5----5-----|




1
D|---------------------------------------------------------------------------------------------|
A|-----------------------------///-------------------------------------------------------------|
F|----------///------///---///--8---///--///---------------------------------------------------|
C|------///--6---///--9-----6--------9----5----------------------------------------------------|
G|-///---6--------6----------------------------------------------------------------------------|
D|--4------------------------------------------------------------------------------------------|

2
D|---------------------------------------------------------------------------------------------|
A|---------------------------------------------------------------------------------------------|
F|---------------------------------------------------------------------------------------------|
C|-///-----------------------------------------------------------------------------------------|
G|----------------------------------------5--5--5--5--5--5--5-5-5-5--5--5--5--5--5-5-5-5--5--5-|
D|--4-------------------------------------3--3--3--3--3--3--3-3-3-3--3--3--3--3--3-3-3-3--3--3-|
                     * * * * * * * * * * * * * * * * * * * *




1
D|----------------------------------------///------------------------------///-----------------|
A|-----------------------------///---------9-------------------------------10---///------------|
F|----------///------///---///--8---///------------------------------------------9----///--///-|
C|------///--6---///--9-----6--------9------------------------------------------------10----7--|
G|-///---6--------6----------------------------------------------------------------------------|
D|--4------------------------------------------------------------------------------------------|

2
D|---------------------------------------------------------------------------------------------|
A|---------------------------------------------------------------------------------------------|
F|---------------------------------------------------------------------------------------------|
C|-///-----------------------------------------------------------------------------------------|
G|-------------------------------------------------------------------------7----7----7----7----|
D|--4----------------------------------------------------------------------5----5----5----5----|




1
D|---------------------------------------------------------------------------------------------|
A|-----------------------------///-------------------------------------------------------------|
F|----------///------///---///--8---///--///---------------------------------------------------|
C|------///--6---///--9-----6--------9----5----------------------------------------------------|
G|-///---6--------6----------------------------------------------------------------------------|
D|--4------------------------------------------------------------------------------------------|

2
D|---------------------------------------------------------------------------------------------|
A|---------------------------------------------------------------------------------------------|
F|---------------------------------------------------------------------------------------------|
C|-///-----------------------------------------------------------------------------------------|
G|----------------------------------------5--5--5--5--5--5--5-5-5-5--5--5--5--5--5-5-5-5--5--5-|
D|--4-------------------------------------3--3--3--3--3--3--3-3-3-3--3--3--3--3--3-3-3-3--3--3-|
                     * * * * * * * * * * * * * * * * * * * *



1
D|----------------------------------------///------------------------------///-----------------|
A|-----------------------------///---------9-------------------------------10---///------------|
F|----------///------///---///--8---///------------------------------------------9----///--///-|
C|------///--6---///--9-----6--------9------------------------------------------------10----7--|
G|-///---6--------6----------------------------------------------------------------------------|
D|--4------------------------------------------------------------------------------------------|

2
D|---------------------------------------------------------------------------------------------|
A|---------------------------------------------------------------------------------------------|
F|---------------------------------------------------------------------------------------------|
C|-///-----------------------------------------------------------------------------------------|
G|-------------------------------------------------------------------------7----7----7----7----|
D|--4----------------------------------------------------------------------5----5----5----5----|




1
D|---------------------------------------------------------------------------------------------|
A|-----------------------------///-------------------------------------------------------------|
F|----------///------///---///--8---///--///---------------------------------------------------|
C|------///--6---///--9-----6--------9----5----------------------------------------------------|
G|-///---6--------6----------------------------------------------------------------------------|
D|--4------------------------------------------------------------------------------------------|

2
D|---------------------------------------------------------------------------------------------|
A|---------------------------------------------------------------------------------------------|
F|---------------------------------------------------------------------------------------------|
C|-///-----------------------------------------------------------------------------------------|
G|----------------------------------------5--5--5--5--5--5--5-5-5-5--5--5--5--5--5-5-5-5--5--5-|
D|--4-------------------------------------3--3--3--3--3--3--3-3-3-3--3--3--3--3--3-3-3-3--3--3-|
                     * * * * * * * * * * * * * * * * * * * *







2:46



D|------------------------------------------------------------------------------------|
A|------------------------------------------------------------------------------------|
F|-------------------7-----8-----------------------------7----8-----------------------|
C|-6-----8-----9-----------------------6-----8-----9----------------6-----9-----8-----|
G|----6-----6-----6-----6-----6-----------6-----6-----6-----6----6-----6-----6-----6--|
D|------------------------------------------------------------------------------------|


D|-----------------------------------------------------------|
A|-----------------------------------------------------------|
F|-----------------------------------------------------------|
C|-4-----6-----8----------4-----6-----8-----4---------6------|
G|-4--4-----4-----4----------4-----4-----4-----4------6--6---|
D|-----------------------------------------------------------|




D|------------------------------------------------------------------------------------|
A|------------------------------------------------------------------------------------|
F|-------------------7-----8-----------------------------7----8-----------------------|
C|-6-----8-----9-----------------------6-----8-----9----------------6-----9-----8-----|
G|----6-----6-----6-----6-----6-----------6-----6-----6-----6----6-----6-----6-----6--|
D|------------------------------------------------------------------------------------|


D|-----------------------------------------------------------|
A|-----------------------------------------------------------|
F|-----------------------------------------------------------|
C|-4-----6-----8----------4-----6-----8-----4---------6------|
G|-4--4-----4-----4----------4-----4-----4-----4------6--6---|
D|-----------------------------------------------------------|






3:21



D|-----------------------------------------------------------------------------|
A|-----------------------------------------------------------------------------|
F|-----------------------------------------------------------------------------|
C|-4---4---6------------4---4---6------------9---8---4------------6------------|
G|-4---4---6------------4---4---6------------9---8---4------------6------------|
D|-2---2---4------------2---2---4------------7---6---2------------4------------|



D|-----------------------------------------------------------------------------|
A|-----------------------------------------------------------------------------|
F|-----------------------------------------------------------------------------|
C|--6------------4---4---6------------9---8---4------------6-------------------|
G|--6------------4---4---6------------9---8---4------------6-------------------|
D|--4------------2---2---4------------7---6---2------------4-------------------|






4:00



L
D|---------------------------------------------------------------|
A|---------------------------------------------------------------|
F|-8---------------8-------7-------8---------------6-------------|
C|---9-8-9-6-9-8-9---9-8-9---8-5-8---9-8-9-6-9-8-9---8-6-8-4-V---|
G|---------------------------------------------------------------|
D|---------------------------------------------------------------|
   * * *  * * *  * * *  * * *  * * *  * * *

R WITH PITCH SHIFT TO +1 OCTAVE
D|---------------------------------------------------------------|
A|---------------------------------------------------------------|
F|-8---------------8-------7-------8---------------6-------------|
C|---9-8-9-6-9-8-9---9-8-9---8-5-8---9-8-9-6-9-8-9---8-6-8-4-V---|
G|---------------------------------------------------------------|
D|---------------------------------------------------------------|
   * * *  * * *  * * *  * * *  * * *  * * *


L
D|----------------------------------------------------------/14--|
A|---------------------------------------------------___---------|
F|-8---------------8-------7-------8----------------/  \--------|
C|---9-8-9-6-9-8-9---9-8-9---8-5-8---9-8-9-6-9-8-9-4/6/8\4-------|
G|---------------------------------------------------------------|
D|---------------------------------------------------------------|

R WITH PITCH SHIFT TO +1 OCTAVE
D|---------------------------------------------------------------|
A|---------------------------------------------------___---------|
F|-8---------------8-------7-------8----------------/  \--------|
C|---9-8-9-6-9-8-9---9-8-9---8-5-8---9-8-9-6-9-8-9-4/6/8\4--/11--|
G|---------------------------------------------------------------|
D|---------------------------------------------------------------|


      ____
L     /  \
D|-14:--/16/18\16-----------------|
A|---------------------------------|
F|---------------------------------|
C|---------------------------------|
G|---------------------------------|
D|---------------------------------|

R WITH PITCH SHIFT TO +1 OCTAVE
D|---------------------------------|
A|------------_--------------------|
F|-----------/ \-------------------|
C|-11:-----6/8\6-\----------------|
G|---------------------------------|
D|---------------------------------|





4;16




1                        DIST.
D|-----------------------------------------------///------------------|
A|----------------------------------------9------10---///-------------|
F|------------------------------8----------------------9----///--///--|
C|----------6--------9------6---------9---------------------10----7---|
G|------6--------6----------------------------------------------------|
D|-4------------------------------------------------------------------|

2
D|--------------------------------------------------------------------|
A|--------------------------------------------------------------------|
F|--------------------------------------------------------------------|
C|--------------------------------------------------------------------|
G|-----------------------------------------------7----7----7----7-----|
D|-----------------------------------------------5----5----5----5-----|



1
D|---------------------------------------------------------------------------------------------|
A|-----------------------------///-------------------------------------------------------------|
F|----------///------///---///--8---///--///---------------------------------------------------|
C|------///--6---///--9-----6--------9----5----------------------------------------------------|
G|-///---6--------6----------------------------------------------------------------------------|
D|--4------------------------------------------------------------------------------------------|

2
D|---------------------------------------------------------------------------------------------|
A|---------------------------------------------------------------------------------------------|
F|---------------------------------------------------------------------------------------------|
C|-///-----------------------------------------------------------------------------------------|
G|----------------------------------------5--5--5--5--5--5--5-5-5-5--5--5--5--5--5-5-5-5--5--5-|
D|--4-------------------------------------3--3--3--3--3--3--3-3-3-3--3--3--3--3--3-3-3-3--3--3-|
                     * * * * * * * * * * * * * * * * * * * *



1
D|----------------------------------------///------------------------------///-----------------|
A|-----------------------------///---------9-------------------------------10---///------------|
F|----------///------///---///--8---///------------------------------------------9----///--///-|
C|------///--6---///--9-----6--------9------------------------------------------------10----7--|
G|-///---6--------6----------------------------------------------------------------------------|
D|--4------------------------------------------------------------------------------------------|

2
D|---------------------------------------------------------------------------------------------|
A|---------------------------------------------------------------------------------------------|
F|---------------------------------------------------------------------------------------------|
C|-///-----------------------------------------------------------------------------------------|
G|-------------------------------------------------------------------------7----7----7----7----|
D|--4----------------------------------------------------------------------5----5----5----5----|




1
D|---------------------------------------------------------------------------------------------|
A|-----------------------------///-------------------------------------------------------------|
F|----------///------///---///--8---///--///---------------------------------------------------|
C|------///--6---///--9-----6--------9----5----------------------------------------------------|
G|-///---6--------6----------------------------------------------------------------------------|
D|--4------------------------------------------------------------------------------------------|

2
D|---------------------------------------------------------------------------------------------|
A|---------------------------------------------------------------------------------------------|
F|---------------------------------------------------------------------------------------------|
C|-///-----------------------------------------------------------------------------------------|
G|----------------------------------------5--5--5--5--5--5--5-5-5-5--5--5--5--5--5-5-5-5--5--5-|
D|--4-------------------------------------3--3--3--3--3--3--3-3-3-3--3--3--3--3--3-3-3-3--3--3-|
                     * * * * * * * * * * * * * * * * * * * *



1
D|----------------------------------------///------------------------------///-----------------|
A|-----------------------------///---------9-------------------------------10---///------------|
F|----------///------///---///--8---///------------------------------------------9----///--///-|
C|------///--6---///--9-----6--------9------------------------------------------------10----7--|
G|-///---6--------6----------------------------------------------------------------------------|
D|--4------------------------------------------------------------------------------------------|

2
D|---------------------------------------------------------------------------------------------|
A|---------------------------------------------------------------------------------------------|
F|---------------------------------------------------------------------------------------------|
C|-///-----------------------------------------------------------------------------------------|
G|-------------------------------------------------------------------------7----7----7----7----|
D|--4----------------------------------------------------------------------5----5----5----5----|




1
D|---------------------------------------------------------------------------------------------|
A|-----------------------------///-------------------------------------------------------------|
F|----------///------///---///--8---///--///---------------------------------------------------|
C|------///--6---///--9-----6--------9----5----------------------------------------------------|
G|-///---6--------6----------------------------------------------------------------------------|
D|--4------------------------------------------------------------------------------------------|

2
D|---------------------------------------------------------------------------------------------|
A|---------------------------------------------------------------------------------------------|
F|---------------------------------------------------------------------------------------------|
C|-///-----------------------------------------------------------------------------------------|
G|----------------------------------------5--5--5--5--5--5--5-5-5-5--5--5--5--5--5-5-5-5--5--5-|
D|--4-------------------------------------3--3--3--3--3--3--3-3-3-3--3--3--3--3--3-3-3-3--3--3-|
                     * * * * * * * * * * * * * * * * * * * *




4:48

1
D|------------------------------------------------------------------|
A|-----------------///--///--///--///-------------------grad bend:-|
F|---------///-///--12---11---10---9--------------------------------|
C|-----///--9---8---------------------------------------------------|
G|-///--7-----------------------------------------------------------|
D|--0---------------------------------------------------------------|

2
D|------------------------------------------------------------------|
A|------------------------------------------------------------------|
F|------------------------------------------------------------------|
C|--------------------------------------------5-8-5-4-7-4-----------|
G|---------2------------2----3----------2-----------------3-6-------|
D|-0--0----0----0--0----0----1--0--0----0---------------------------|
  * *     * *      * *     * * * * * * * *



1
D|----------------------------///--///--------------------------------------------------------|
A|------------------///-///---12---11-grad bend:---------------------------------------------|
F|---------///-------9---8--------------------------------------------------------------------|
C|-----///--9--///---------------------------------5-8-5-4-7-4------8-8-11-8--7-7-10-7--------|
G|-///--7------10----------------------------------------------3-6----------------------6-6-8-|
D|--0-----------------------------------------------------------------------------------------|
                          * * * * * * * * * * * * * * * * * * *
2
D|--------------------------------------------------------------------------------------------|
A|--------------------------------------------------------------------------------------------|
F|--------------------------------------------------------------------------------------------|
C|-------------------------------------------------5-8-5-4-7-4------5-5-8-5-4-4-7-4-----------|
G|---------2------------2----3----------2----------------------3-6------------------3-3-6-----|
D|-0--0----0----0--0----0----1--0--0----0-----------------------------------------------------|
  * *     * *      * *        * * * * * * * * * * * * * * * * * * *



1
D|------------------------------------------------------------------|
A|-----------------///--///--///--///-------------------grad bend:-|
F|---------///-///--12---11---10---9--------------------------------|
C|-----///--9---8---------------------------------------------------|
G|-///--7-----------------------------------------------------------|
D|--0---------------------------------------------------------------|

2
D|------------------------------------------------------------------|
A|------------------------------------------------------------------|
F|------------------------------------------------------------------|
C|--------------------------------------------5-8-5-4-7-4-----------|
G|---------2------------2----3----------2-----------------3-6-------|
D|-0--0----0----0--0----0----1--0--0----0---------------------------|
  * *     * *      * *     * * * * * * * *



1
D|----------------------------///--///--------------------------------------------------------|
A|------------------///-///---12---11-grad bend:---------------------------------------------|
F|---------///-------9---8--------------------------------------------------------------------|
C|-----///--9--///---------------------------------5-8-5-4-7-4------8-8-11-8--7-7-10-7--------|
G|-///--7------10----------------------------------------------3-6----------------------6-6-8-|
D|--0-----------------------------------------------------------------------------------------|
                          * * * * * * * * * * * * * * * * * * *
2
D|--------------------------------------------------------------------------------------------|
A|--------------------------------------------------------------------------------------------|
F|--------------------------------------------------------------------------------------------|
C|-------------------------------------------------5-8-5-4-7-4------5-5-8-5-4-4-7-4-----------|
G|---------2------------2----3----------2----------------------3-6------------------3-3-6-----|
D|-0--0----0----0--0----0----1--0--0----0-----------------------------------------------------|
  * *     * *      * *        * * * * * * * * * * * * * * * * * * *


D|-------------|
A|-------------|
F|-------------|
C|-------------|
G|-2-----------|
D|-0--0-0-0-0--|
   * * * *


Tab helpful? buy me a coffee :) https://www.paypal.me/andherembrace


****************************************************
*=palm mute
///= Tremelo picked
ph=pinch harmonics
/=slide
 _
/ \, ^=HAMMER ON/PULLOFF
~=VIBRATO
),(,|= BEND,UNBEND,BENT

****************************************************

Find guitar tabs and chords

A B C D E F G H I J K L M N O P Q R S T U V W X Y Z #