Alt Lys Er Svunnet Hen by Dimmu Borgir

Alt Lys Er Svunnet Hen bass tab by Dimmu Borgir

Bass tabs

  • Difficulty: Beginner
Time Signature: 4/4 -- 6/8

All Instruments 🤘 Intro:
 1:33 6/8

  E S S S S E S S S S  E S S S S E S S S S  E S S S S E S S S S  E S S S S E S S S S
G|-----------------------|-----------------------|-----------------------|-----------------------|
D|-----------------------|-----------------------|-----------------------|-----------------------|
A|-----------------------|-8--8-8-8-8-8--8-8-8-8-|-----------------------|-8--8-8-8-8-8--8-8-8-8-|
E|-5--5-5-5-5-5--5-5-5-5-|-----------------------|-5--5-5-5-5-5--5-5-5-5-|-----------------------|

  E S S S S E S S S S  E S S S S E S S S S  E S S S S E S S S S  E S S S S E S S S S
G|-----------------------|-----------------------|-----------------------|-----------------------|
D|-----------------------|-----------------------|-----------------------|-----------------------|
A|-----------------------|-8--8-8-8-8-8--8-8-8-8-|-----------------------|-8--8-8-8-8-8--8-8-8-8-|
E|-5--5-5-5-5-5--5-5-5-5-|-----------------------|-5--5-5-5-5-5--5-5-5-5-|-----------------------|

  E S S S S E S S S S  E S S S S E S S S S  E S S S S E S S S S  E S S S S E S S S S
G|-----------------------|-----------------------|-----------------------|-----------------------|
D|-----------------------|-----------------------|-----------------------|-----------------------|
A|-----------------------|-8--8-8-8-8-8--8-8-8-8-|-----------------------|-8--8-8-8-8-8--8-8-8-8-|
E|-5--5-5-5-5-5--5-5-5-5-|-----------------------|-5--5-5-5-5-5--5-5-5-5-|-----------------------|

  E S S S S E S S S S  E S S S S E S S S S  E S S S S E S S S S  E S S S S E S S S S
G|-----------------------|-----------------------|-----------------------|-----------------------||
D|-----------------------|-----------------------|-----------------------|-----------------------||
A|-----------------------|-8--8-8-8-8-8--8-8-8-8-|-----------------------|-8--8-8-8-8-8--8-8-8-8-||
E|-5--5-5-5-5-5--5-5-5-5-|-----------------------|-5--5-5-5-5-5--5-5-5-5-|-----------------------||


🤘 Bridge:  2:00

  E  S S S S E  E  E  E S S S S E  S S S S  E S S S S E E E  E S S S S E E E
G|----------------------------|----------------------------|--------------------|---------------------|
D|-10--10-10-10-10-10--12--10-|-9--9-9-9-9-----------------|--------------------|---------------9--10-|
A|----------------------------|------------10--10-10-10-10-|-7--7-7-7-7-7-------|---------------------|
E|----------------------------|----------------------------|---------------8--7-|-5--5-5-5-5-5--------|

  E  S S S S E  E  E  E S S S S E  S S S S  E S S S S E E E  E S S S S E E E
G|----------------------------|----------------------------|--------------------|---------------------|
D|-10--10-10-10-10-10--12--10-|-9--9-9-9-9-----------------|--------------------|---------------9--10-|
A|----------------------------|------------10--10-10-10-10-|-7--7-7-7-7-7-------|---------------------|
E|----------------------------|----------------------------|---------------8--7-|-5--5-5-5-5-5--------|

  E  S S S S E  E  E  E S S S S E  S S S S  E S S S S E E E  E S S S S E E E
G|----------------------------|----------------------------|--------------------|---------------------|
D|-10--10-10-10-10-10--12--10-|-9--9-9-9-9-----------------|--------------------|---------------9--10-|
A|----------------------------|------------10--10-10-10-10-|-7--7-7-7-7-7-------|---------------------|
E|----------------------------|----------------------------|---------------8--7-|-5--5-5-5-5-5--------|

  E  S S S S E  E  E  E S S S S E  S S S S  E S S S S E E E  E S S S S E E E
G|----------------------------|----------------------------|--------------------|---------------------||
D|-10--10-10-10-10-10--12--10-|-9--9-9-9-9-----------------|--------------------|---------------------||
A|----------------------------|------------10--10-10-10-10-|-7--7-7-7-7-7-------|---------------5--7--||
E|----------------------------|----------------------------|---------------8--7-|-5--5-5-5-5-5--------||


🤘 Bridge 2:  2:35

  E. S E E S S S S  E  S S S S E S S S S  E. S E E S S S S  E  S S S S E S S S S
G|---------------------|----------------------------|---------------------|----------------------------|
D|-------9--7--7-7-7-7-|-10--10-10-12-10-9--9-9-9-9-|-------9--7--7-7-7-7-|-10--10-10-12-10-9--9-9-9-9-|
A|-7--10---------------|----------------------------|-7--10---------------|----------------------------|
E|---------------------|----------------------------|---------------------|----------------------------|

  E. S E E S S S S  E  S S S S E S S S S  E. S E E S S S S  E  S S S S E S S S S
G|---------------------|----------------------------|---------------------|----------------------------||
D|-------9--7--7-7-7-7-|-10--10-10-12-10-9--9-9-9-9-|-------9--7--7-7-7-7-|-10--10-10-12-10-9--9-9-9-9-||
A|-7--10---------------|----------------------------|-7--10---------------|----------------------------||
E|---------------------|----------------------------|---------------------|----------------------------||


Intro riff: 2:53

  E S S S S E S S S S  E S S S S E S S S S  E S S S S E S S S S  E S S S S E S S S S
G|-----------------------|-----------------------|-----------------------|-----------------------|
D|-----------------------|-----------------------|-----------------------|-----------------------|
A|-----------------------|-8--8-8-8-8-8--8-8-8-8-|-----------------------|-8--8-8-8-8-8--8-8-8-8-|
E|-5--5-5-5-5-5--5-5-5-5-|-----------------------|-5--5-5-5-5-5--5-5-5-5-|-----------------------|

  E S S S S E S S S S  E S S S S E S S S S  E S S S S E S S S S  E S S S S E S S S S
G|-----------------------|-----------------------|-----------------------|-----------------------|
D|-----------------------|-----------------------|-----------------------|-----------------------|
A|-----------------------|-8--8-8-8-8-8--8-8-8-8-|-----------------------|-8--8-8-8-8-8--8-8-8-8-|
E|-5--5-5-5-5-5--5-5-5-5-|-----------------------|-5--5-5-5-5-5--5-5-5-5-|-----------------------|

  E S S S S E S S S S  E S S S S E S S S S  E S S S S E S S S S  E S S S S E S S S S
G|-----------------------|-----------------------|-----------------------|-----------------------|
D|-----------------------|-----------------------|-----------------------|-----------------------|
A|-----------------------|-8--8-8-8-8-8--8-8-8-8-|-----------------------|-8--8-8-8-8-8--8-8-8-8-|
E|-5--5-5-5-5-5--5-5-5-5-|-----------------------|-5--5-5-5-5-5--5-5-5-5-|-----------------------|

  E S S S S E S S S S  E S S S S E S S S S  E S S S S E S S S S  E S S S S E S S S S
G|-----------------------|-----------------------|-----------------------|-----------------------||
D|-----------------------|-----------------------|-----------------------|-----------------------||
A|-----------------------|-8--8-8-8-8-8--8-8-8-8-|-----------------------|-8--8-8-8-8-8--8-8-8-8-||
E|-5--5-5-5-5-5--5-5-5-5-|-----------------------|-5--5-5-5-5-5--5-5-5-5-|-----------------------||




🤘 Verse : 3:20 4/4

G|------------------|-----------------|-----------------|-----------------|
D|------------------|-----------------|-----------------|-----------------|
A|------------------|-----------------|-----------------|-----------------|
E|------------------|-----------------|-----------------|-----------------|

  E E E E E E E E  E E E E E E E E  E E E E E E E E  E E E E E E E E  E E E E E E E E
G|------------------|-----------------|-----------------|-7-7-7-7-7-7-7-7-|-7-7-7-7-7-7-7-7-|
D|---------------10-|-7-7-7-7-7-7-7-7-|-5-5-5-5-5-5-5-5-|-----------------|-----------------|
A|-7-7-7-7-7-7-7----|-----------------|-----------------|-----------------|-----------------|
E|------------------|-----------------|-----------------|-----------------|-----------------|

  E E E E E E E E  E E E E E E E E  E E E E E E E E  E E E E E E E E
G|------------------|-----------------|-----------------|-7-7-7-7-7-7-7-7-|
D|---------------10-|-7-7-7-7-7-7-7-7-|-5-5-5-5-5-5-5-5-|-----------------|
A|-7-7-7-7-7-7-7----|-----------------|-----------------|-----------------|
E|------------------|-----------------|-----------------|-----------------|

  E E E E E E E E  E E E E E E E E  E E E E E E E E  E E E E E E E E  E E E E E E E E
G|------------------|-----------------|-----------------|-7-7-7-7-7-7-7-7-|-7-7-7-7-7-7-7-7-|
D|---------------10-|-7-7-7-7-7-7-7-7-|-5-5-5-5-5-5-5-5-|-----------------|-----------------|
A|-7-7-7-7-7-7-7----|-----------------|-----------------|-----------------|-----------------|
E|------------------|-----------------|-----------------|-----------------|-----------------|

  E E E E E E E E  E E E E E E E E  E E E E E E E E  E E E E E E E E
G|------------------|-----------------|-----------------|-7-7-7-7-7-7-7-7-|
D|---------------10-|-7-7-7-7-7-7-7-7-|-5-5-5-5-5-5-5-5-|-----------------|
A|-7-7-7-7-7-7-7----|-----------------|-----------------|-----------------|
E|------------------|-----------------|-----------------|-----------------|

  E E E E E E E E  E E E E E E E E  E E E E E E E E  E E E E E E E E  E E E E E E E E
G|------------------|-----------------|-----------------|-7-7-7-7-7-7-7-7-|-7-7-7-7-7-7-7-7-||
D|---------------10-|-7-7-7-7-7-7-7-7-|-5-5-5-5-5-5-5-5-|-----------------|-----------------||
A|-7-7-7-7-7-7-7----|-----------------|-----------------|-----------------|-----------------||
E|------------------|-----------------|-----------------|-----------------|-----------------||


🤘 Chorus:  3:58

  E E E E E E E E  E E E E E E E E  E E E E E E E E  E E E E E E E E
G|-----------------|-----------------|-----------------|-----------------|
D|-----------------|-----------------|-----------------|-----------------|
A|-7-7-7-7-7-7-7-6-|-5-5-5-5-5-5-5-5-|-----------------|-2-2-2-2-2-2-2-2-|
E|-----------------|-----------------|-3-3-3-3-3-3-3-5-|-----------------|

  E E E E E E E E  E E E E E E E E  E E E E E E E E  E E E E E E E E
G|-----------------|-----------------|-----------------|-----------------|
D|-----------------|-----------------|-----------------|-----------------|
A|-7-7-7-7-7-7-7-6-|-5-5-5-5-5-5-5-5-|-----------------|-2-2-2-2-2-2-2-2-|
E|-----------------|-----------------|-3-3-3-3-3-3-3-5-|-----------------|

  E E E E E E E E  E E E E E E E E  E E E E E E E E  E E E E E E E E
G|-----------------|-----------------|-----------------|-----------------|
D|-----------------|-----------------|-----------------|-----------------|
A|-7-7-7-7-7-7-7-6-|-5-5-5-5-5-5-5-5-|-----------------|-2-2-2-2-2-2-2-2-|
E|-----------------|-----------------|-3-3-3-3-3-3-3-5-|-----------------|

  E E E E E E E E  E E E E E E E E  E E E E E E E E  E E E E E E E E
G|-----------------|-----------------|-----------------|-----------------||
D|-----------------|-----------------|-----------------|-----------------||
A|-7-7-7-7-7-7-7-6-|-5-5-5-5-5-5-5-5-|-----------------|-2-2-2-2-2-2-2-2-||
E|-----------------|-----------------|-3-3-3-3-3-3-3-5-|-----------------||




🤘 Verse : 4:20

  E E E E E E E E  E E E E E E E E  E E E E E E E E  E E E E E E E E
G|------------------|-----------------|-----------------|-7-7-7-7-7-7-7-7-|
D|---------------10-|-7-7-7-7-7-7-7-7-|-5-5-5-5-5-5-5-5-|-----------------|
A|-7-7-7-7-7-7-7----|-----------------|-----------------|-----------------|
E|------------------|-----------------|-----------------|-----------------|

  E E E E E E E E  E E E E E E E E  E E E E E E E E  E E E E E E E E  E E E E E E E E
G|------------------|-----------------|-----------------|-7-7-7-7-7-7-7-7-|-7-7-7-7-7-7-7-7-|
D|---------------10-|-7-7-7-7-7-7-7-7-|-5-5-5-5-5-5-5-5-|-----------------|-----------------|
A|-7-7-7-7-7-7-7----|-----------------|-----------------|-----------------|-----------------|
E|------------------|-----------------|-----------------|-----------------|-----------------|

  E E E E E E E E  E E E E E E E E  E E E E E E E E  E E E E E E E E
G|------------------|-----------------|-----------------|-7-7-7-7-7-7-7-7-|
D|---------------10-|-7-7-7-7-7-7-7-7-|-5-5-5-5-5-5-5-5-|-----------------|
A|-7-7-7-7-7-7-7----|-----------------|-----------------|-----------------|
E|------------------|-----------------|-----------------|-----------------|

  E E E E E E E E  E E E E E E E E  E E E E E E E E  E E E E E E E E  E E E E E E E E
G|------------------|-----------------|-----------------|-7-7-7-7-7-7-7-7-|-7-7-7-7-7-7-7-7-||
D|---------------10-|-7-7-7-7-7-7-7-7-|-5-5-5-5-5-5-5-5-|-----------------|-----------------||
A|-7-7-7-7-7-7-7----|-----------------|-----------------|-----------------|-----------------||
E|------------------|-----------------|-----------------|-----------------|-----------------||


🤘 Chorus:  4:44

  E E E E E E E E  E E E E E E E E  E E E E E E E E  E E E E E E E E
G|-----------------|-----------------|-----------------|-----------------|
D|-----------------|-----------------|-----------------|-----------------|
A|-7-7-7-7-7-7-7-6-|-5-5-5-5-5-5-5-5-|-----------------|-2-2-2-2-2-2-2-2-|
E|-----------------|-----------------|-3-3-3-3-3-3-3-5-|-----------------|

  E E E E E E E E  E E E E E E E E  E E E E E E E E  E E E E E E E E
G|-----------------|-----------------|-----------------|-----------------|
D|-----------------|-----------------|-----------------|-----------------|
A|-7-7-7-7-7-7-7-6-|-5-5-5-5-5-5-5-5-|-----------------|-2-2-2-2-2-2-2-2-|
E|-----------------|-----------------|-3-3-3-3-3-3-3-5-|-----------------|

  E E E E E E E E  E E E E E E E E  E E E E E E E E  E E E E E E E E
G|-----------------|-----------------|-----------------|-----------------|
D|-----------------|-----------------|-----------------|-----------------|
A|-7-7-7-7-7-7-7-6-|-5-5-5-5-5-5-5-5-|-----------------|-2-2-2-2-2-2-2-2-|
E|-----------------|-----------------|-3-3-3-3-3-3-3-5-|-----------------|

  E E E E E E E E  E E E E E E E E  E E E E E E E E  E E E E E E E E
G|-----------------|-----------------|-----------------|-----------------||
D|-----------------|-----------------|-----------------|-----------------||
A|-7-7-7-7-7-7-7-6-|-5-5-5-5-5-5-5-5-|-----------------|-2-2-2-2-2-2-2-2-||
E|-----------------|-----------------|-3-3-3-3-3-3-3-5-|-----------------||


🤘 Outro:  5:07 6/8

  E E E E E E  E E E E E E  E E E E E E  E E E E E E
G|-------------------|-------------|-------------|-------------|
D|-------------------|-------------|-------------|-------------|
A|-10-10-10-10-10-10-|-9-9-9-9-9-9-|-2-2-2-5-5-5-|-------------|
E|-------------------|-------------|-------------|-0-0-0-0-0-0-|

  E E E E E E  E E E E E E  E E E E E E  H.
G|-------------------|-------------|-------------|----||
D|-------------------|-------------|-------------|----||
A|-10-10-10-10-10-10-|-9-9-9-9-9-9-|-2-2-2-4-5-4-|-2--||
E|-------------------|-------------|-------------|----||


The pattern repeats until the end of the song.


************************************
Duration 🏷Legend

| H - Half Note
| E - Eighth Note
| S - Sixteenth Note
|  - Dotted Note

************************************

Find guitar tabs and chords

A B C D E F G H I J K L M N O P Q R S T U V W X Y Z #