Allegiance by Dimmu Borgir

Allegiance tab by Dimmu Borgir

Guitar tabs

Key(equipo)

. - palm mute      / - slide up to
\ - slide down to    ~ - vibrato
h - hammer on      b - Bend
p - pull off      Suffixes for bend
t - tap         f - full bend  h - half bend
ph - pinched harmonic  q - quarter bend t - tap bend
* - see comment     ^ - Hold bend  r release bend
x - Stuccatto      ~ - vibrato bend
, - slight palm mute  () - ghost note, sustained note
" - tremolo note     - Trill

=========================================

1. Allegiance(lealtad)

tono E A D G B E


Introduccion


|-----------------------------------|
|-----------------------------------|
|-10----10----10-------4------------|
|-8--8--9--8--8--8--9--4------------| x4
|-8--8--8--8--8--8--8--2------------|
|-----------------------------------|

|-----------------------------------|
|-----------------------------------|
|-8\7-7-7-7/8-8\7-7-3/4(\3)---------|
|-8\7-7-7-7/8-8\7-7-3/4(\3)---------|
|-6\5-5-5-5/6-6\5-5-1/2(\1)---------|
|-----------------------------------|

|-----------------------------------|
|-----------------------------------|
|-8\7-7-7-7/8-8-8-8-8---------------|
|-8\7-7-7-7/8-8-8-8-8---------------|
|-6\5-5-5-5/6-6-6-6-6---------------|
|-----------------------------------|

parte pricipal
|-----------------------------------|
|-----------------------------------|
|------------------8----------------|
|-4-3--4-3-4--8-88-8----------------|
|-2-1--2-1-2--6-66-6----------------|
|-----------------------------------|
 . . . . . . ..

|--------------------------------------------------------------|
|--------------------------------------------------------------|
|---------------------------------------------777777777777-----|
|-99998888888888888888888888888888999988889999777777777777-----| Gtr I
|-99998888888888888888888888888888999988889999555555555555-----|
|-77776666666666666666666666666666777766667777------------6677-|
|
|--------------------------------------------------------------|
|--------------------------------------------------------------|
|---------------------------------------------777777777777-----|
|-99998888888888888888888888888888999988889999------------8899-| Gtr II
|--------------------------------------------------------------|
|--------------------------------------------------------------|

|--------------------------------------------------------------|
|--------------------------------------------------------------|
|--------------------------------------------------------------|
|-9999888888888888888888888888888899998888999922222222222222222| Gtr I
|-7777666666666666666666666666666677778888777722222222222222222|
|-7777666666666666666666666666666677778888777700000000000000000|
|
|--------------------------------------------------------------|
|--------------------------------------------------------------|
|--------------------------------------------------------------|
|-99998888888888888888888888888888999988889999-----------------| Gtr II
|---------------------------------------------77777777777777777|
|--------------------------------------------------------------|

Cuando la voz de inicio y final explosión beat, el juego lo mismo con los acordes abiertos


2:05
 B5   G5  A5
|-----------------------------------|
|-----------------------------------|
|-----7-----------------------------|
|---9---9---5--/7-5-----------------| x4
|--9-------5------------------------|
|-7-------3-------------------------|


|-------------------------------------------|
|-------------------------------------------|
|-------------------------------------------|
|-----7-----7----------7-------7h8p7h8p7h8--|
|-5-5---5-5---5-55-4-4---4---8--------------|
|--------------------------6----------------|
 . .  . .  . .. . .  . .


2:50
|-------------------------------------|
|------7--------7--------7------------|
|-8--9---8-8--9---8-8--9---8----9-----|
|-8--------8--------8--------9--9-11--|
|-6--------6--------6--------9--7-11--|
|----------------------------7----9---|


3:37
|----------------------------------------------------------------------------|
|----------------------------------------------------------------------------|
|----------------------------------------------------------7777101010109999--|
|----------------------------------------------777710101010------------------|
|-7-7-7-7-7-7-7-7-7-7-7-7-7-7-7-7-7-7--77778888------------------------------|
|----------------------------------------------------------------------------|
 . . . . . . . . . . . . . . . . . .
|----------------------------------------------------------------------------|
|----------------------------------------------------------------------------|
|----------------------------------------------------------7777101010109999--|
|----------------------------------------------777710101010------------------|
|-7-7-7-7-7-7-7-7-7-7-7-7-7-7-7-7-7-7--77778888------------------------------|
|----------------------------------------------------------------------------|
 . . . . . . . . . . . . . . . . . .
|----------------------------------------------------------------------------|
|----------------------------------------------------------------------------|
|----------------------------------------------------------7777101010109999--|
|----------------------------------------------777710101010------------------|
|-7-77777-77777-77777-77777-77777-7777-77778888------------------------------|
|----------------------------------------------------------------------------|
 . ..... ..... ..... ..... ..... ....
|----------------------------------------------------------------------------|
|----------------------------------------------------------------------------|
|----------------------------------------------------------7777101010109999--|
|----------------------------------------------777710101010------------------|
|-7-7-7-7-7-7-7-7-7-7-7-7-7-7-7-7-7-7--77778888------------------------------|
|----------------------------------------------------------------------------|
 . . . . . . . . . . . . . . . . . .

GTR Extra reproduce continuamente algo como esto en el fondo


|-----------------------------------|
|-----------------------------------|
|---9-10-11-10-9--------------------|
|-9---------------------------------|
|-----------------------------------|
|-----------------------------------|

Luego viene la parte principal de nuevo y después de que

|------------------------------------------------|
|------------------------------------------------|
|------------------------------------------------|
|------------------------------------------------|
|----------9-7-9-7-9----------9-7-9-7-9----------|
|-777777777---7---7--777777777---7---7-----------|
 .........  .  . .........  .  .

|------------------------------------------------|
|------------------------------------------------|
|------------------------------------8---8-------|
|------------------------------------8---8-------|
|----------10-8-10-8-10------------6-6-6-6-------|
|-888888888----8----8--888888888-----------------|
 .........  .  . .........  .  .


La melodía, al final dice algo como esto
|-------------------------------------|
|-------------------------------------|
|-9-10---------11-9-------11-9-----11-|
|-----10-9-9-9-----10-9-9------9-9----|
|-------------------------------------|
|-------------------------------------|
      . .    . .   . .

|-------------------------------------|
|-------------------------------------|
|-9-10---------11-9-------11-9-----11-|
|-----10-9-9-9-----10-9-9------9-9----|
|-------------------------------------|
|-------------------------------------|
      . .    . .   . .

|-------------------------------------------|
|-------------------------------------------|
|-10-12----------12-10--------12-10------12-|
|------10-9-10-10------9-10-10------10-10---|
|-------------------------------------------|
|-------------------------------------------|
       . .     . .    . .

|-------------------------------------------|
|-------------------------------------------|
|-10-12----------12-10--------12-10------12-|
|------10-9-10-10------9-10-10------10-10---|
|-------------------------------------------|
|-------------------------------------------|
       . .     . .    . .


|------------------------------------------------|
|------------------------------------------------|
|------------------------------------------------|
|------------------------------------------------|
|----------9-7-9-7-9----------9-7-9-7-9----------|
|-777777777---7---7--777777777---7---7-----------|
 .........  .  . .........  .  .

|------------------------------------------------|
|------------------------------------------------|
|------------------------------------8---8-------|
|------------------------------------8---8-------|
|----------10-8-10-8-10------------6-6-6-6-------|
|-888888888----8----8--888888888-----------------|
 .........  .  . .........  .  .

|------------------------------------------------|
|------------------------------------------------|
|------------------------------------------------|
|------------------------------------------------|
|----------9-7-9-7-9----------9-7-9-7-9----------|
|-777777777---7---7--777777777---7---7-----------|
 .........  .  . .........  .  .

|------------------------------------------------|
|------------------------------------------------|
|------------------------------------------------|
|------------------------------------------------|
|----------10-8-10-8-10--------------------------|
|-888888888----8----8--888888888-----------------|
 .........  .  . .........


|-----------------------------------|
|-----------------------------------|
|-8--8--8---------------------------|
|-8--8--8--8-5-5-4------------------|
|-6--6--6--6-3-3-2------------------|
|-----------------------------------|

Find guitar tabs and chords

A B C D E F G H I J K L M N O P Q R S T U V W X Y Z #