Log in

One click and you are in

Login with Facebook Login with Google

Why sign up and log in

Guitar Tabs Explorer
The Dillinger Escape Plan tabs for Clip the apex    accept instruction

Clip The Apex Accept Instruction tab by The Dillinger Escape Plan

The Dillinger Escape Plan tabs for Clip the apex    accept instruction

Tabs with lyrics

Album: Calculating Infinity
Tabbed By: Steve ([email protected])

>I've been working on this for a while, and will be leaving the country for 6 months
>unable to work on it, so I am submitting it unfinished hoping someone will be able to
>use it to finish up the song, or get some use out of what i have.
This is my favorite song by dillinger so I decided to tab it.  This is my first tab
and given the difficulty of the song there are bound to be some mistakes.  I slowed
down the song in parts and watched a video of them playing to make it as accurate as
I could. If you do find any problems please send them to me and I'll fix it.

/ = Slide		[  ] = Not Sure on the note
^ = Bend		x = Mute

Key of A chord diagramE MajorE

That lashed right on..

E--12--12--15-----12-12-12-12-15-15-|
B-----------------------------------|
G--9---9---12-----9--9--9--9--12-12-|  x2
D-----------------------------------|
A-----------------------------------|
E-----------------------------------|


E----------------------------------------------|-------------------------|
B----------------------------------------------|-------------------------|
G-9-x-x-9------------------------------9-9-----|-9xx9--------------------| x3
D-8-x-x-8------------9-9-----7-7-10-10-----8-8-|-8xx8-----------9-9------|
A-7-x-x-7--7-7-10-10-----8-8-------------------|-7xx7-7-7-10-10-----8-8--|
E----------------------------------------------|-------------------------|

hide this Broken boy..

E--12--12--15-----12-12-12-12-15-15-|
B-----------------------------------|
G--9---9---12-----9--9--9--9--12-12-|  x2
D-----------------------------------|
A-----------------------------------|
E-----------------------------------|

E--------------------|--------------|
B--------------------|--------------|
G-9xx9-8-8-8-8-8-8-8-|-9xx9-8-8-8-8-| x2
D-8xx8-7-7-7-7-7-7-7-|-8xx8-7-7-7-7-|
A-7xx7-6-6---6-6---6-|-7xx7-6-6---6-|
E--------------------|--------------|
E----------------------------------------------|-------------------------|
B----------------------------------------------|-------------------------|
G-9-x-x-9------------------------------9-9-----|-9xx9--------------------| x3
D-8-x-x-8------------9-9-----7-7-10-10-----8-8-|-8xx8-----------9-9------|
A-7-x-x-7--7-7-10-10-----8-8-------------------|-7xx7-7-7-10-10-----8-8--|
E----------------------------------------------|-------------------------|

Quick fill into the chugging part,

Guitar one
                                 bet it all..
E--------------------------------------|
B--------------------------------------|
G-9xx9-----------------xx9xx9----------|
D-8xx8-----------------xx8xx8----5-6-5-|
A-7xx7-----8-8-----9-9-xx7xx7----5-6-5-|
E------6-6-----7-7---------------5-6-5-|

Guitar 2

E--------------------------------------|
B--------------------------------------|
G-9xx9-----------------xx18xx18--------|
D-8xx8-----------------xx17xx17--5-6-5-|
A-7xx7-----8-8-----9-9-xx15xx15--5-6-5-|
E------6-6-----7-7-------16--16--5-6-5-|

Awesome chugging riff, listen to track to get timing right

Guitar one
     ^	   ^ slight bend on all of these   ^
E---------------------------------------------------|
B---------------------------------------------------|
G-xx18--xx18--xx18--x-18--xx18--x18-18--xx18--------|
D-xx17--xx17--xx17--x-17--xx17--x17-17--xx17--5-6-5-|
A-xx15--xx15--xx15--x-15--xx15--x15-15--xx15--5-6-5-|
E-xx16--xx16--xx16--x-16--xx16--x16-16--xx16--5-6-5-|
Guitar 2
			I       Just lost     the whole thing..
E---------------------------------------------------|
B---------------------------------------------------|
G---------------------------------------------------|
D---------------------8----------8--8---------5-6-5-|
A---------------------7----------7--7---------5-6-5-|
E---------------------6----------6--6---------5-6-5-|

Watch for the off rhythm parts here
Guitar 1
E--------------------------------------------------------------------|
B--------------------------------------------------------------------|
G-xx18--xx18--xx18--x-x18-18--xx18--x18--xx18-18--xx18--18-18--------|
D-xx17--xx17--xx17--x-x17-17--xx17--x17--xx17-17--xx17--17-17--5-6-5-|
A-xx15--xx15--xx15--x-x15-15--xx15--x15--xx15-15--xx15--15-15--5-6-5-|
E-xx16--xx16--xx16--x-x16-16--xx16--x16--xx16-16--xx16--16-16--5-6-5-|

Guitar 2
E--------------------------------------------------------------------|
B--------------------------------------------------------------------|
G--------------------------------------------------------------------|
D----------------------8--8---------x8-----8--8---------8--8---5-6-5-|
A----------------------7--7---------x7-----7--7---------7--7---5-6-5-|
E----------------------6--6---------x6-----6--6---------6--6---5-6-5-|

Little soloing here
Guitar 1
in the concert footage it sounds like he moves it all up 2 frets but not on the cd
E----------------------------------------------------|
B----------------------------------------------------|
G-xx18--xx18--xx18--x-18--xx18---x18-18--xx18--------|
D-xx17--xx17--xx17--x-17--xx17---x17-17--xx17--5-6-5-|
A-xx15--xx15--xx15--x-15--xx15---x15-15--xx15--5-6-5-|
E-xx16--xx16--xx16--x-16--xx16---x16-16--xx16--5-6-5-|

Guitar 2  the rhytm between the notes are the same, i spaced them so it would match up
with guitar 1.
E----------------------------------------------------|
B----------------------------------------------------|
G----------------------------------------------------|
D-------------------x-8-----------8--8-x-x-x-x-5-6-5-|
A-------3-4---------x-7-----------7--7-x-x-x-x-5-6-5-|
E-543245-2-3-5-4-3--x-6-2-4-5-4-2-6--6-x-x-x-x-5-6-5-|


Guitar 1
E--------------------------------------------------------------------|
B--------------------------------------------------------------------|
G-xx18--xx18--xx18--x-x18-18--xx18--x18--xx18-18--xx18--18-18--------|
D-xx17--xx17--xx17--x-x17-17--xx17--x17--xx17-17--xx17--17-17--5-6-5-|
A-xx15--xx15--xx15--x-x15-15--xx15--x15--xx15-15--xx15--15-15--5-6-5-|
E-xx16--xx16--xx16--x-x16-16--xx16--x16--xx16-16--xx16--16-16--5-6-5-|

Guitar 2 rhythm situation same as above
E--------------------------------------------------------------------|
B--------------------------------------------------------------------|
G--------------------------------------------------------------------|
D-------------------x-x8--8---------x8-x--x8--8-x-x-x-x-8--8---5-6-5-|
A-------3-4---------x-x7--7---------x7-x--x7--7-x-x-x-x-7--7---5-6-5-|
E-543245-2-3-5-4-3--x-x6--6-2-5-4-2-x6-x--x6--6-x-x-x-x-6--6---5-6-5-|

|
ⓘ Guitar tab for 'Clip The Apex Accept Instruction' by The Dillinger Escape Plan, a post-hardcore band formed in 1997 from New Jersey, USA

Almost there ...

Sign in to get your own page with links to favourite songs and more. You are just one click away...

Login with Facebook Login with Google