Log in

One click and you are in

Login with Facebook Login with Google

Why sign up and log in

Guitar Tabs Explorer
Digable Planets bass tabs for Rebirth of a slick  cool like dat

Rebirth Of A Slick Cool Like Dat bass tab - Digable Planets

Digable Planets bass tabs for Rebirth of a slick  cool like dat

Bass tabs

Digable Planets / Rebirth of a slick (cool like dat).btab

TablEdited by Jan Bjorklund

Tuning : E A D G 	Time Signature: 4/4

 tempo 98
|--------------------------------|--------------------------------|
|----2---1---0-------------------|----2---1---0-------------------|
|----------------4-(0)---0-------|----------------4-(0)---0-------|
|2-------------------2-------1-0-|2-------------------2-------1-0-|
|----------------2---1---0-------|--------------------------------|
|------------2---------2-----1-2-|----- That was the intro--------|
|----4---2-----1-----------------|-what follows are the last bars-|
|2-------------------------------|--------------------------------|


|--------------------------------|----------------2---1---0-------|
|----2---1---0-------------------|------------2---------2-----1-2-|
|----------------4-(0)---0-------|----4---2-----1-----------------|
|2-------------------2-------1-0-|2-------------------------------|


|--------------------------------|--------------------------------|
|----2---1---0-------------------|----2---1---0-------------------|
|----------------4-(0)---0-------|----------------4-------0-------|
|2-------------------2-------1-0-|2-------------------2-------1-0-|


|--------------------------------|----------------2---1---0-------|
|----2---1---0-------------------|------------2---------2-----1-2-|
|----------------4-------0-------|----4---2-----1-----------------|
|2-------------------2-------1-0-|2-------------------------------|


|--------------------------------|--------------------------------|
|----2---1---0-------------------|----2---1---0-------------------|
|----------------4-------0---0---|----------------4-------0---0---|
|2-------------------2-----2---1-|2-------------------2-----2---1-|

Almost there ...

Sign in to get your own page with links to favourite songs and more. You are just one click away...

Login with Facebook Login with Google