GuitarTabsExplorer icon
GuitarTabsExplorer icon

Log in

Songbook

  • Log in to add and see bookmarks

Last visited songs

    No songs visited yet...

You Had Time by Ani Difranco

Tabs

You Had Time
Ani DiFranco
Standard tuning

4/4 time
"-" = 1/16th note

She has this capoed up higher than i have it noted here. i think this is pretty much right on, but if anyone finds a mistake, let me know ([email protected])


(during verse)
  Chord diagramD MajorD   Chord diagramG/BG/B    Chord diagramA augmentedA   Chord diagramD MajorD
E--|---0------------|----------------|
B--|7-----8----8----|5-----7----7----|
G--|---------7---7--|---67----7---7--|
D--|----------------|----------------|
A--|5---------------|------5-----5---|
E--|------7-----7---|5---------------|

  Chord diagramD MajorD   Chord diagramG/BG/B    Chord diagramA augmentedA
E--|---0------------|----------------|
B--|7-----8----8----|5-----5----5----|
G--|---------7---7--|---6-----6---6--|
D--|----------------|----------------|
A--|5---------------|----------------|
E--|------7-----7---|5-----5-----5---|

(between verses)
  Chord diagramF# minorF#m  Chord diagramG+G     Chord diagramA augmentedA   Chord diagramB minorBm
E--|----------------|----------------|
B--|2-----3----3----|5-----7----7----|
G--|---24----4---4--|---67----7---7--|
D--|----------------|----------------|
A--|----------------|----------------|
E--|2-----3-----3---|5-----7-----7---|

  Chord diagramF# minorF#m  Chord diagramG+G     Chord diagramA augmentedA   Chord diagramB minorBm
E--|----------------|----------------|
B--|2-----3----3----|5-----5----5----|
G--|---24----4---4--|---6-----6---6--|
D--|----------------|----------------|
A--|----------------|----------------|
E--|2-----3-----3---|5-----5-----5---|

Chord diagramD MajorD     Chord diagramG/BG/B    Chord diagramA augmentedA      Chord diagramD MajorD
How can I go on with nothing to say
   Chord diagramD MajorD          Chord diagramG/BG/B       Chord diagramA augmentedA
And know you're going to look at me that way
    Chord diagramD MajorD      Chord diagramG/BG/B      Chord diagramA augmentedA        Chord diagramD MajorD
And say what did you do out there, what did you decide
Chord diagramD MajorD          Chord diagramG/BG/B      Chord diagramA augmentedA
You said you needed time, you had time
Chord diagramF# minorF#m  Chord diagramG+G      Chord diagramA augmentedA   Chord diagramB minorBm
Chord diagramF# minorF#m  Chord diagramG+G      Chord diagramA augmentedA

Other versions of You Had Time

Alternative guitar chords and tabs for You Had Time by Ani Difranco

VersionType
You had time acousticChords

[ Privacy | About us ]

Welcome to the guitar community

Why join and log in?
- Get songbook with favourite songs
- Get custom made front page
- Submit chords and tabs
- Submit guitar-cover videos
- Get a lot of thumbs up for your work

Songbook

Last visited songs

Site
Home
Search
Community
Submit chords

Video

No video for this page. Check out how you can submit guitar-cover videos here

Search tabs and chords

Browse by artist

A B C D E F G H I J K L M N O P Q R S T U V W X Y Z #


Menu

Search

Video

Bookmark

Login