GuitarTabsExplorer icon
GuitarTabsExplorer icon

Log in

Songbook

  • Log in to add and see bookmarks

Last visited songs

    No songs visited yet...

Both Hands by Ani Difranco

Tabs

Artist: Ani DiFranco
Title: Both Hands
Album: Self-Titled, the first album

Transcribed By: Launchpad Domer
Contact Email: [email protected]

Tuning: Standard, no capo

This song is fingerpicked, and it's
got a very interesting rhythm - it'd be best to check out the song for
yourself.
She plucks the notes hard on the first beat of the chord, and then crescendoes
through the rest of the chord - basically, listen to the song, it's a great
one.
Basic Verse/Chord Riff:
e |------------------------------------------------------|
b |------------------------------------------------------|
g |--------5-----5--5--5-------------5------5--5--5------|
d |------------------------------------------------------|
a |--------3-----3--3--3---------------------------------|
Chord diagramE MajorE |----------------------------------3------3--3--3------|

      I am walking...  Out in the rain, and I am

e |------------------------------------------------------|
b |----------------------------------3------3--3--3------|
g |--------5-----5--5--5---------------------------------|
d |------------------------------------------------------|
a |------------------------------------------------------|
Chord diagramE MajorE |--------5-----5--5--5-------------3------3--3--3------|

      Listening to the low moan of the dial tone again


"Can't get through part":
e |--------------------------------|
b |--------3-----------------------|
g |------------------0-------------|
d |--------------------------5-----|
a |------------------3-------------|
Chord diagramE MajorE |--------3-----------------5-----|


At the end of some of the main riffs, she separates the notes of the
Chord diagramG+G chord instead of the normal picking pattern... It ends up like:

e |-------------|
b |--------3----|
g |------0------|   (Let it ring)
d |-------------|
a |-------------|
Chord diagramE MajorE |----3--------|
       ...How hard we tried

Pat Millea
U. of Notre Dame
210 Keough Hall
Notre Dame, IN 46556-5656
(219) 634-4240
[email protected]

Other versions of Both Hands

Alternative guitar chords and tabs for Both Hands by Ani Difranco

VersionType
Both handsChords

[ Privacy | About us ]

Welcome to the guitar community

Why join and log in?
- Get songbook with favourite songs
- Get custom made front page
- Submit chords and tabs
- Submit guitar-cover videos
- Get a lot of thumbs up for your work

Songbook

Last visited songs

Site
Home
Search
Community
Submit chords

Video

No video for this page. Check out how you can submit guitar-cover videos here

Search tabs and chords

Browse by artist

A B C D E F G H I J K L M N O P Q R S T U V W X Y Z #


Menu

Search

Video

Bookmark

Login