Log in

One click and you are in

Login with Facebook Login with Google

Why sign up and log in

Guitar Tabs Explorer
Ani Difranco tabs for As is

Guitar tabs

Title: As Is

Contact: tmillea@nd.edu


Tuning: Standard, capo 3rd fret; all tabs relative to capo

A chord diagramA augmentedA really pretty song (yeah, it's a girlie phrase, but whatever).  Be gentle
with
this one, fingerpick it nicely...

e|-------7-------------------------------------|
b|-------8---------7---------8---------5-------|
g|-----------------7---------9---------5-------|
d|----5------------------------------------/5--|
a|-----------0--5------5--7------0--3----------| ...etc
A chord diagramE MajorE|---------------------------------------------|
Pre-Chorus:
e|------------------------------------------|
b|------0--------------0-----------0--------|
g|----0---0----------0---0-------0---0------|
d|------------------------------------------|
a|------------------------------------------|
A chord diagramE MajorE|--0-------0----5\3-------3---5--------5---|


Outro:
e|---------------------------------------|
b|--15------13------10-----8------6/-----|
g|---------------------------------------|
d|---------------------------------------| 2x
a|--13------11------8------6------4/-----|
A chord diagramE MajorE|---------------------------------------|

Pat Millea
U. of Notre Dame
210 Keough Hall
Notre Dame, IN  46556-5656
(219) 634-4240
tmillea@nd.edu

ⓘ Guitar tab for 'As Is' by Ani Difranco, a female rock artist from Buffalo, USA. Ani Difranco was born in 1970.

Almost there ...

Sign in to get your own page with links to favourite songs and more. You are just one click away...

Login with Facebook Login with Google