Search tabs and chords

Search for song, artist or band

Log in

One click and you are in

Login with Facebook Login with Google

Why sign up and log in

Guitar Tabs Explorer
Die Toten Hosen guitar tabs for Pop und politik

Guitar tabs with lyrics

Toten Hosen – Pop & Politik

Verse:
    B5 chord diagramB5B5                          G5 chord diagramG5G5          E5 chord diagramE5E5
    X  S S T  S T X  S S T  S T S  S T S T  S  S  T  S  3x
e|-------------------------------------------------------||
B|-------------------------------------------------------||
G|*-----------------------------------------------------*||
D|*--7h-9-9-7h-9-9-7h-9-9-7h-9-9-5--5-5-5-5-14-14-14-14-*||
A|---7h-9-9-7h-9-9-7h-9-9-7h-9-9-5--5-5-5-5-14-14-14-14--||
E|---7----7-7----7-7----7-7----7-3--3-3-3-3-12-12-12-12--||

    A5 chord diagramA5A5         G5 chord diagramG5G5         B5 chord diagramB5B5
    S  S T S T S  S T S T X  S S T  S T X  S S T  S
e|--------------------------------------------------|----||
B|--------------------------------------------------|----||
G|--------------------------------------------------|----||
D|--7--7-7-7-7-5--5-5-5-5-7h-9-9-7h-9-9-7h-9-9-7h-9-|----||
A|--7--7-7-7-7-5--5-5-5-5-7h-9-9-7h-9-9-7h-9-9-7h-9-|----||
E|--5--5-5-5-5-3--3-3-3-3-7----7-7----7-7----7-7----|----||


Chorus:
      G#5 chord diagramG#5G#5            E5 chord diagramE5E5         C#5 chord diagramC#5C#5
      S   S  T  S  T S  S T S T S   S T S T S S T S T  3x
e|-----------------------------------------------------||
B|-----------------------------------------------------||
G|*---------------------------------------------------*||
D|*--13--13-13-13-13-9--9-9-9-9-6---6-6-6-6-6-6-6-6-6-*||
A|---11--11-11-11-11-7--7-7-7-7-4---4-4-4-4-4-4-4-4-4--||
E|-----------------------------------------------------||

     F#5 chord diagramF#5F#5       E5 chord diagramE5E5        G#5 chord diagramG#5G#5
     S   S S S S  S S S  S   S  S  S  S  S  S  S
e|------------------------------------------------||
B|------------------------------------------------||
G|*----------------------------------------------*||
D|*------------9--9-9-9-13--13-13-13-13-13-13-13-*||
A|---4---4-4-4-7--7-7-7-11--11-11-11-11-11-11-11--||
E|---2---2-2-2------------------------------------||

    F#5 chord diagramF#5F#5       E5 chord diagramE5E5        C#5 chord diagramC#5C#5
    S   S S S S  S S S  S   S  S  S  S  S  S  S
e|----------------------------------------------||
B|----------------------------------------------||
G|----------------------------------------------||
D|------------9--9-9-9--------------------------||
A|--4---4-4-4-7--7-7-7-11--11-11-11-11-11-11-11-||
E|--2---2-2-2-----------9---9--9--9--9--9--9--9-||

Strophe 1:

3x B chord diagramBB G chord diagramGG E chord diagramEE 1x A chord diagramAA G chord diagramGG B chord diagramBB = Verse Main Riff

Glaubt ihr wirklich, dass das gut ist | Wenn ihr das so vermischt?
Eure naiven Gedanken | Zu Pop und Politik
Ihr solltet eure Fresse halten | Wenn ihr nichts davon versteht
Was auf der Welt grad' los ist | Wie's wirklich hier aussieht
Wie's aussieht

Refrain:

3x G# chord diagramG#G# E chord diagramEE C# chord diagramC#C# 2x F# chord diagramF#F# E chord diagramEE G# chord diagramG#G# 1x F# chord diagramF#F# E chord diagramEE C# chord diagramC#C# = Chorus Riff

Wer will schon eure Lieder? | Geht endlich aus dem Weg
Spart euch die Kommentare | Zu Pop und Politik
Die keiner hören will Pop und Politik

Strophe 2: 3x B chord diagramBB G chord diagramGG E chord diagramEE 1x A chord diagramAA G chord diagramGG B chord diagramBB = Verse Main Riff

Wollt ihr die Welt verändern Mit eurer peinlichen Musik?
Ihr seid wohl Zeitverschwender Niemand will euch mehr seh'n
Nie mehr seh'n

Refrain: 3x G# chord diagramG#G# E chord diagramEE C# chord diagramC#C# 2x F# chord diagramF#F# E chord diagramEE G# chord diagramG#G# 1x F# chord diagramF#F# E chord diagramEE C# chord diagramC#C# = Chorus Riff

Wer will schon eure Lieder? Geht endlich aus dem Weg
Spart euch die Kommentare Zu Pop und Politik
Die keiner hören will Pop und Politik

Bridge: Bass: 6x B chord diagramBB G chord diagramGG E chord diagramEE 2x A chord diagramAA G chord diagramGG B chord diagramBB = Verse Main Riff

Wir sagen's euch im Guten Haltet euch lieber raus
An Tagen wie diesen Bleibt ihr besser mal zuhaus'
Bleibt im Haus

Refrain: 3x G# chord diagramG#G# E chord diagramEE C# chord diagramC#C# 2x F# chord diagramF#F# E chord diagramEE G# chord diagramG#G# 1x F# chord diagramF#F# E chord diagramEE C# chord diagramC#C# = Chorus Riff

Wir spielen uns're Lieder Wir geh'n nicht aus dem Weg
Mit unsern Kommentaren Zu Pop und Politik
Die keiner hören will Pop und Politik

Almost there ...

Sign in to get your own page with links to favourite songs and more. You are just one click away...

Login with Facebook Login with Google