Guitar Tabs Explorer
Die Toten Hosen guitar tabs for Hang on sloopy

Hang On Sloopy tab


Be the first to rate

Hang On Sloopy tab by Die Toten Hosen

Guitar tabs

Print

Die Toten Hosen - Hang On Sloopy

[Intro]
           Bass-Begleitung w?hrend des ganzen Songs:
1:--------|-----------------------------------------|
2:--------|-----------------------------------------|
3:--------|-----------------------------------------|
4:--------|-----------------------------------------|
5:--------|----------3------3--5------5--3----------|
6:----10/-|-3------3--------------------------5-----|

[Refrain] (PowerChords)
G chord diagramGG  C chord diagramCC     D chord diagramDD   C chord diagramCC
Hang on Sloopy
Sloopy, hang on,
Hang on Sloopy,
Sloopy, hang on.

[1.Strophe]
Sloopy lives in a very bad part of town
And everybody here tries to put my Sloopy down.
Sloopy, I don't care what your daddy do
'Cause you know Sloopy-girl, I'm in love with you
And so I sing on:

[Refrain]
Hang on, Sloopy,
Sloopy, hang on
Hang on, Sloopy,
Sloopy, hang on
yeah, yeah, yeah, yeah!

[Solo] (so ungef?hr ...)
1:---12/13~~~-12/13~~~-12/13--12/13--12-----18-20--21b-21b----|
2:---14/15~~~-14/15~~~-14/15--14/15--13--20-------------------|
3:------------------------------------------------------------|
4:------------------------------------------------------------|
5:------------------------------------------------------------|
6:------------------------------------------------------------|

1:---21b-21b-21b----18-20-19-21b--12/13~~~-12/13~~~-12/13-----|
2:---------------20---------------14/15~~~-14/15~~~-14/15-----|
3:------------------------------------------------------------|
4:------------------------------------------------------------|
5:------------------------------------------------------------|
6:------------------------------------------------------------|

1:--- 12/13-10-6/7-6/7--6/7-5-3-----|
2:----14/15-12-7/8-7/8--7/8-7-4-2b--|
3:----------------------------------|
4:----------------------------------|
5:----------------------------------|
6:----------------------------------|