The Day Before The Day by Dido

The Day Before The Day tab by Dido

Guitar tabs

INTRO

  4x          4x
|---0---------------------0-----------------|
|-----------1---------------------1---------|
|-------2-------2-------------2-------2-----|
|-----2-------2-------------3-------3-------|
|---0-----0---------------0-----0-----------|
|-------------------------------------------|


VERSES

  Speeches...      Clocks...
  People...       Babies...
  4x          4x
|---0---------------------0-----------------|
|-----------1---------------------1---------|
|-------2-------2-------------2-------2-----|
|-----2-------2-------------3-------3-------|
|---0-----0---------------0-----0-----------|
|-------------------------------------------|

  Flowers...      Work...
  No flags...      Know...
  4x          2x          4x
|---3---------------------0--------------------0----------------|
|-----------0---------------------1--------------------0--------|
|-------0-------0-------------0-------0------------0-------0----|
|-----0-------0-------------2-------2------------2-------2------|
|---------2---------------3-----3--------------2-----2----------|
|---3-----------------------------------------------------------|


REF

  You...
  And believed...
  2X          2x          4x
|---0---------------------0--------------------0----------------|
|-----------1---------------------1--------------------0--------|
|-------0-------0-------------2-------2------------0-------0----|
|-----2-------2-------------2-------2------------2-------2------|
|---3-----3---------------0-----0--------------2-----2----------|
|---------------------------------------------------------------|


BRIDGE

  You          who hoped that    underneath we all
  2x          2x          2x
|---1---------------------0--------------------0----------------|
|-----------1---------------------1--------------------0--------|
|-------2-------2-------------0-------0------------0-------0----|
|-----3-------3-------------2-------2------------2-------2------|
|---3-----3---------------3-----3--------------2-----2----------|
|---------------------------------------------------------------|

  felt the same  that was until
  2x          2x          2x
|---0---------------------1--------------------0----------------|
|-----------1---------------------1--------------------1--------|
|-------2-------2-------------2-------2------------0-------0----|
|-----2-------2-------------3-------3------------2-------2------|
|---0-----0---------------3-----3--------------3-----3----------|
|---------------------------------------------------------------|

  the day before...   the day before... oh, the day before the day...
  8x          4x
|---0---------------------0--------------------0----------------|
|-----------0---------------------1--------------------0--------|
|-------0-------0-------------2-------2------------0-------0----|
|-----2-------2-------------2-------2------------2-------2------|
|---2-----2---------------0-----0--------------2-----2----------|
|---------------------------------------------------------------|

Speeches won't be made today, clocks will carry on
Flowers won't be left in parks, work will still be done
People won't be dressed in black, babies will be born
No flags will fly, the sun will rise but we will know that you are gone

You who loved to love, and believed we can never give enough

It wakes me every single night, thinking through the day
Did you stop at any time, have doubts at any stage
Were you calm or were you numb, or happy just to get it done
I've lived my life without regret - until today

And you who loved to love, and believed we can never give enough

I didn't get to say goodbye, the day before the day
Was trying to get to work on time, that's why I turned away
And missed the most important thing you've ever tried to say
I've lived my life without regret - until today

And you who loved to love, and believed we can never give enough

And you who hoped that underneath we all felt the same
That was until the day before the day
The day before the day
The day before the day
Oooh, the day before the day
The day before the day
Oooh, the day before the day
Oooh, the day before the day

Find guitar tabs and chords

A B C D E F G H I J K L M N O P Q R S T U V W X Y Z #