Thank You Ukulele by Dido

Thank You Ukulele chords by Dido

Guitar chords with lyrics

Key: Am

 Am   F    G    C  Em
A|0---0---0---0---2---2---3---2--|
E|--0---0---1---1---3---3---3---3|  3x
C|-------------------------------|
G|-------------------------------|

 Am   F    F#dim  F
A|0---0---0---0---0---0---0---0--|
E|--0---0---1---1---2---2---1---1|
C|-------------------------------|
G|-------------------------------|

Find guitar tabs and chords

A B C D E F G H I J K L M N O P Q R S T U V W X Y Z #