Thank You by Dido

Thank You bass tab by Dido

Bass tabs

Standard Tuning

Intro - Each note = 2 beats
Gā€”0------0-------0-------0--------0-------0------0------0------------|
D------1-------1-------1-------1-------1-------1-------1------1------|
A--------------------------------------------------------------------|
E--------------------------------------------------------------------|

Ist Verse
G---0------------3---2--------------------------------------------|
D-------1---2-----------------------------------------------------| x3
A-----------------------------------------------------------------|
E-----------------------------------------------------------------|

G----0---------------------0----------0---------------------------|
D--------1------0-----1---------1----------1----------------------|
A-----------------------------------------------------------------|
E-----------------------------------------------------------------|

2nd verse
G-------------------------|
D-------------------------| x3
A-----------------1---0ā€”--|
E----3------1-------------|

G-----------------|
D-----------------|
A-----------------|
E-----3----3------|

Chorus
G-------------------------|
D--------0--1-------------| x2
A----1--------------------|
E-----------------1-------|

G--------------------------------|
D----0--1----3--0----0-----------|
A-1------------------------3-----|
E--------------------------------|

Chorus x5 till end

Find guitar tabs and chords

A B C D E F G H I J K L M N O P Q R S T U V W X Y Z #