Sitting On The Roof Of The World by Dido

Sitting On The Roof Of The World tab by Dido

Guitar tabs

Gsus4 = xx553x
   G = xx543x
   G = 320030 (BRIDGE & LAST CHORUS)
  F#m = 244222
  Em = x22000
  Bm = x24432
   C = x32010


Intro, Verse 1, Chorus 1, Verse 2, Chorus 2, Outro:

 | Gsus4   |G     |
e|-----------------------|
B|---3---3------3---3----|
G|--5-5-5-5----4-4-4-4---|
D|-5---5------5---5------|
A|-----------------------|
E|-----------------------|
  I...   |knowing...
 ..it was... |b
  Took... | not much...
 ..went...  |was
  looking...| playing...
 ..knocking..|doors
  I...   |just...
 ..self...  |self
 ..was...  |
 ..sitting...|world
 ..was...  |was
 ..knowing...|how to leave   REPEAT FOR VERSE 2 & CHORUS 2


Bridge: x2

 | G |F#m|Em    |Bm   |C   |G        |
e|----------------------------------------------------|
B|----------0--0--0----3-------1-------3--3--3--3-----|
G|-----------0--0-------4-------0-------0--0--0--0----|
D|----------------------------------------------------|
A|--------------------2--2----3--3--------------------|
E|-3---2---0--0--0--------------------3--3--3--3--3---|
  Peo-ple say...  |special|back  |everyone...
 ..thats the point.. |want|different |want to fit in...


Last Chorus:

 | Cadd9   |G     |
e|----------------------|
B|--3--3--3----3--3--3--|
G|---0--0-------0--0----|
D|----------------------|
A|-3--3--3--------------|
E|------------3--3--3---|
 ..was...  |was
 ..sitting...|world

 | Cadd9   |G      |C     |G
e|----------------------------------------------|
B|--3--3--3----3--3--3------1--1--3----0--0--0--|
G|---0--0-------0--0---------0--0-------0--0----|
D|----------------------------------------------|
A|-3--3--3-----------------3--3--3--------------|
E|------------3--3--3-----------------3--3--3----|
 ..was...  |gods...   |knowing...|how to leave

************************************
ENJOY!!
https://www.instagram.com/dddiegoy/

Other versions of Sitting On The Roof Of The World

Alternative guitar chords and tabs for Sitting On The Roof Of The World by Dido

Find guitar tabs and chords

A B C D E F G H I J K L M N O P Q R S T U V W X Y Z #