Log in

One click and you are in

Login with Facebook Login with Google

Why sign up and log in

Guitar Tabs Explorer
Dido chords for Isobel

Guitar chords

"Isobel" by Dido
>From the album "No angel"
Tabbed by Dado2


Intro:

   A chord diagramBbmBbm     A chord diagramEbmEbm
e|-------------6---|
A chord diagramBB|-----6-----7---7-|
A chord diagramG+G|---6---6-8-------|
A chord diagramD MajorD|-8---------------|
A chord diagramA augmentedA|-----------------|
A chord diagramE MajorE|-----------------|
   (repeat many times, fading in)
Verse (repeat twice):

Repeat intro riff three times, then play this riff:

   A chord diagramBbmBbm     A chord diagramG#G#  A chord diagramF#F#
e|-----------------|
A chord diagramBB|-----6-----4---2-|
A chord diagramG+G|---6---6-5---3---|
A chord diagramD MajorD|-8---------------|
A chord diagramA augmentedA|-----------------|
A chord diagramE MajorE|-----------------|


Chorus:

| A chord diagramBbmBbm A chord diagramG#G# | A chord diagramEbmEbm (Ebm2) |
| A chord diagramBbmBbm A chord diagramG#G# | A chord diagramEbmEbm |
| A chord diagramC#C# A chord diagramG#G# | A chord diagramEbmEbm | x2
| A chord diagramC#C# A chord diagramG#G# | A chord diagramF#F# | A chord diagramC#C# |

(Ebm2) = one strum as described below (p = pull off)

Repeat verse and chorus.

Repeat intro riff x5
| A chord diagramBbmBbm A chord diagramEbmEbm | x4

Outro:
Repeat chorus.

Chords needed:

  A chord diagramBbmBbm    A chord diagramEbmEbm    A chord diagramG#G#     A chord diagramF#F#     (Ebm2) A chord diagramC#C#
e-1------2------4------2------2p1----1-------
B-2------4------4------2------4------2-------
G-3------3------5------3------3------1-------
D-3------1------6------4------1------3-------
A-1------x------6------4------x------4-------
E-x------x------4------2------x------x-------

(if you place a capo on the 1st fret or drop the song a semitone down)
  A chord diagramA minorAm    A chord diagramDmDm    A chord diagramG+G     A chord diagramFF     (Dm2) A chord diagramC majorC
e-0-----1-----3-----1-----1p0---0------
B-1-----3-----0-----1-----3-----1------
G-2-----2-----0-----2-----2-----0------
D-2-----0-----0-----3-----0-----2------
A-0-----x-----2-----3-----x-----3------
E-x-----x-----3-----1-----x-----x------

For any comments, questions or threats e-mail me at:
dado2_714@yahoo.it

Tab made with Guitar Tabmaker 2.0.
For information see it.geocities.com/dado2_714

Other versions of Isobel

IsobelTabs

Almost there ...

Sign in to get your own page with links to favourite songs and more. You are just one click away...

Login with Facebook Login with Google