Hurricanes  by Dido

Hurricanes chords by Dido (Ver. 2)

Guitar chords with lyrics

Tuning: Standard (E A D G B E)

Key: F#m

Difficulty: Novice

HURRICANES. (Dido)

Intro/Verse
  F#m       E
e|---------------------------------->
B|---------------------------------->
G|---2---2---2---2----1---1---1---1->
D|---------------------------------->
A|---------------------------------->
E|-2---2---2---2----0---0---0---0--->
  C#m       D
e|----------------------------------|
B|----------------------------------|
G|----------------------------------|
D|---6---6---6---6----7---7---7---7-|
A|-4---4---4---4----5---5---5---5---|
E|----------------------------------|

Chorus
  F#m       A
e|---------------------------------->
B|---------------------------------->
G|---2---2---2---2----2---2---2---2->
D|---------------------------------->
A|------------------0---0---0---0--->
E|-2---2---2---2-------------------->
  B7sus4
e|----------------------------------|
B|----------------------------------|
G|---2---2---2---2----2---2---1---1-|
D|----------------------------------|
A|-2---2---2---2----2---2---2---2---|
E|----------------------------------|

** Chords not played in original song

B7sus4 x20200

Intro:
F#m E C#m D

Verse:
    F#m
I wanna wake up
     E
With your weight by my side
      C#m
And I wanna think that
     D
You look good as you rise
      F#m
And I wanna turn to you
   E
Turn around by your side
      C#m
And I wanna think
      D
But not to say

Chorus:
    F#m  A       B7sus4
Let me face  the sound and fury
    F#m  A   B7sus4
Let me face  hurricanes

Verse:
      F#m
And I wanna see you
    E
As you walk through the door
       C#m
And time will make us
     D
Some ways less and some ways more
      F#m
And I wanna talk of nothing
    E
As the world passes by
      C#m
And I wanna think
      D
But not to say

Chorus:
    F#m  A       B7sus4
Let me face  the sound and fury
    F#m  A   B7sus4
Let me face  hurricanes

Bridge:
      F#m
Let me not turn away
   A
From happiness or pain
      B7sus4
Just not to run away

in my heart and in my head
    F#m  A   B7sus4
Let me face  hurricanes

Instrumental:
F#m A B7sus4 (x5)

Bridge:
   F#m A B7sus4
Hurricaaaaaaanes
   F#m A B7sus4
Hurricaaaaaaanes
   F#m A B7sus4
Hurricaaaaaaanes
   F#m A B7sus4
Hurricaaaaaaanes
   F#m N.C.
Hurrica

Chorus:
    F#m** A**      B7sus4**
Let me face  the sound and fury
    F#m** A**  B7sus4**
Let me face  hurricanes
    F#m  A       B7sus4
Let me face  the sound and fury
    F#m  A   B7sus4
Let me face  hurricanes

Outro:
F#m  A   B7sus4
    Hurricanes
   F#m  A   B7sus4
Hurricanes Hurricanes
   F#m  A   B7sus4
Hurricanes

Other versions of Hurricanes

Alternative guitar chords and tabs for Hurricanes by Dido

Find guitar tabs and chords

A B C D E F G H I J K L M N O P Q R S T U V W X Y Z #