Don't Believe In Love by Dido

Don't Believe In Love tab by Dido

Guitar tabs

Dido - Don't Believe In Love
from the album SAFE TRIP HOME 2008

I just love this song and dido so i had to play


*All Related to Capo at 5th fret
*Standard tunning
*the best technique to use is PLUCKING on the verse Obviously
*Chorus Strum softly
*i figured it by EAR (Live on Regis & Kelly)
*for the exact pattern i suggest u find it on youtube
*Don't forget to rate and comment


*Tabbed by : Cal Mamkegh



Riff (1)
e--------------------------
B--------------------------
G--------------------------
D--------------------------
A------0h2---5---2--0h2----
E--0-0---------------------

Riff (2)
e--------------------------
B--------------------------
G--------------------------
D------------2-------------
A------0h2-------2--0h2----
E--0-0---------------------


For The Intro U Play Riff (1) (2) (1)


Verse 1 :

(U PLAY THIS 4 TIMES)
e-----------------------------------------------------------
B-----------------------------------------------------------
G------0-0-0-0----------------------------------------------
D-------------------4-4-4-4------2-2-2-2------2-2-2-2-------
A------2-2-2-2------2-2-2-2------3-3-3-3------3-3-3-3-------
E--0-0----------2-2----------0-0----------0-0---------------

*NOTE* after the third time u have played the Verse part there's a quick twist using hammer on

D --0h2----- (before she sing "IT SAYS ....." u can notice it and get it quickly



Chorus 1 :

Em Bm Cmaj7 X2

Cmaj7 Bm Em X2



Verse 2 : exactly like Verse 1

then u play a couple of Choruses same as given above

and OUTRO same as Intro



*if u still have Question/Requests email me at : Blue-toxic@hotmail.com




Lyrics :

I wanna go to bed
With arms around me
But wake up on my own
Pretend
That I'm still sleeping
Til' you go home

Oh
I can't look at you
This morning
I should probably have a sign
That says
'Leave right now or quicker'
You've overstayed your time

If I don't believe in love
Nothing will last for me
If I don't believe in love
Nothing is safe for me
When I don't believe in love
You're too close to me
And that's why
You have to leave

Maybe I slept peaceful
On your shoulder
Your arm warm around my side
But it's different now
It's morning
And I can't face your smile

The second that I feel
Your safe hands
Reaching out for mine
I slip away and out of sight
You've ovestayed your time

If I don't believe in love
Nothing is good for me
If I don't believe in love
Nothing will last for me
When I don't believe in love
Nothing is new for me
Nothing is wrong for me
And nothing is real for me

When I don't believe in love
Why do you care for me?
When I don't believe in love
Nothing is real for me
If I don't believe in love
You're getting too close to me
And that's why you have to leave
And that's why you have to leave

If I don't believe in love
If I don't believe in love
If I don't believe in love
Nothing is left for me
If I don't believe in love
You're too good for me

Find guitar tabs and chords

A B C D E F G H I J K L M N O P Q R S T U V W X Y Z #