Log in

One click and you are in

Login with Facebook Login with Google

Why sign up and log in

Guitar Tabs Explorer
Bruce Dickinson tabs for 1000 points of light

Guitar tabs

Album: Balls To Picasso
Written By Bruce Dickinson and Roy Z

Tabbed & transcribed by Ricardo Bustos O.
email: RBO567@Hotmail.com

pm = palm muting
h = hammer on
p = pull off
x = harmonic note
/ = slide
* = stay in that note for certain time
b = bend

This goes like this:
Riff 1

Verse Riff

Riff 1

Chorus Riff

Verse Riff

Riff 1

Chorus Riff

Riff 2

SOLO
Final solo

Chorus Riff

Riff 1



Riff 1:

E------------------------------------------------
B------------------------------------------------
G------------------------------------------------
D-3--------3--------3----------------------------
A-1--------1--------1----------------------------
E---0-0-0----0-0-0-----0-------------------------
     p.m.     p.m.     p.m


Verse Riff:

E------------------------------------------------
B------------------------------------------------
G------------------------------------------------
D--------5-4---4-3----------------5-4---4-3---3*-
A------------5------------------------5-----4----
E--5-6-7--------------------5-6-7----------------
         p.m. p.m.                p.m. p.m. p.m.


Chorus Riff:

E----------------------------------------------------
B----------------------------------------------------
G-2------2-2-----------------2------2-2---5----7----5
D-2------2-2---5----3----5---2------2-2---5----7----5
A-0------0-0---5----3----5---0------0-0---3----5----3
E--------------3----1----3---------------------------



E---------------------------------------------------
B---------------------------------------------------
G-2------2-2-----------------5------5-5---7--7--7/9-
D-2------2-2---5----3----5---5------5-5---7--7--7/9-
A-0------0-0---5----3----5---3------3-3---5--5--5/7-
E--------------3----1----3--------------------------



Riff 2:

E------------------------------------------------
B------------------------------------------------
G------------------------------------------------
D-----------3-2--------------3-2-----------------
A-5/4--4/3--1-0----5/4--4/3--1-0---5/4-----------
E-3/2--2/1---------3/2--2/1--------3/2-----------


E------------------------------------------------
B------------------------------------------------
G------------------------------------------------
D-----------3-2--------------3-2-----------------
A-5/4--4/3--1-0----5/4--4/3--1-0---7/6--6/5------
E-3/2--2/1---------3/2--2/1--------5/4--4/3------


E------------------------------------------------
B------------------------------------------------
G------------------------------------------------
D-----------3-2--------------3-2-----------------
A-5/4--4/3--1-0----5/4--4/3--1-0---5/4-----------
E-3/2--2/1---------3/2--2/1--------3/2-----------


E------------------------------------------------
B------------------------------------------------
G------------------------------------------------
D-----------3-2--------------3-2---------------3-
A-5/4--4/3--1-0----5/4--4/3--1-0---7/6--6/5----1-
E-3/2--2/1---------3/2--2/1--------5/4--4/3------





SOLO:


E------------------------------------------------
B---8b(9)*-----8b(9)-8b(9)--8b(9)-----8b(9)-8b(9)
G------------------------------------------------
D------------------------------------------------
A------------------------------------------------
E------------------------------------------------


E------------------------------------------------
B--8b(9)-8b(9)-8b(9)-----8b(9)-8b(9)-8b(9)-8b(9)-
G------------------------------------------------
D------------------------------------------------
A------------------------------------------------
E------------------------------------------------


E-----------------------------------------16-18-21-
B-8b(9)-6h7p6------6-------------16-18-21----------
G------------8p6----8--6*--------------------------
D----------------8----8----------------------------
A--------------------------------------------------
E--------------------------------------------------
                                (this part play it


E18-16----------------------------------------------
B-----21-18-16--16-18-21-18-16----------------------
G-------------------------------18-15-13-15-18-15-13
D--------------------------------------------------
A--------------------------------------------------
E--------------------------------------------------
fast like hell...................................


E------------------------------------------------
B------------------------------------------------
G------------------------------------------------
D18-15-13-15-18-15-13----------------------------
A---------------------18-15-13**--------4-6-7-6--
E-------------------------------------6----------
...........................)


E-----------------------------------18----18-----
B------------------------------------------------
G--------------------6-----6*--------------------
D----------------6h8---8-6-----------------------
A-4h6p4-------/8---------------4/1---------------
E-------6-4-6---------------------6*---6*--------



E------------------------------------------------
B------------------------------------------------
G-8*--8-6-8-9-8-6-8*-----------------------------
D------------------------------------------------
A------------------------------------------------
E------------------------------------------------


this is the final solo when he starts singing
"It should be time for love but..."


E------------------------------------------------
B------------------------------------------------
G------------------------------------------------
D-10-12-12/14---12--14---------------------------
A----------------------12*-------------14/15-----
E------------------------------------------------


E------------------------------------------------
B------------------------------------------------
G------------------------------------------------
D------------------------------------------------
A-14/15--------------12-14-14/15--14--12---------
E-------15*------------------------------12*-----


E------------------------------------------------
B------------------------------------------------
G--15--17-17h18*-----------18b(20)(18)*(20)------
D-----------------16*----------------------------
A------------------------------------------------
E------------------------------------------------


E------------------------------------------------
B-16-14-16---------------------16-14-16--14-13-14
G-----------18b(20)(18)*(20)---------------------
D------------------------------------------------
A------------------------------------------------
E------------------------------------------------


E------------------------------------------------
B-----------------13h14--13h14--14**--18-18-18---
G-15-13-15*--------------------------------------
D------------------------------------------------
A------------------------------------------------
E------------------------------------------------


E------------------------------------------------
B-18-18---21b--18--16b(16)(18)(16)*--------------
G------------------------------------------------
D------------------------------------------------
A------------------------------------------------
E------------------------------------------------

Almost there ...

Sign in to get your own page with links to favourite songs and more. You are just one click away...

Login with Facebook Login with Google