Log in

One click and you are in

Login with Facebook Login with Google

Why sign up and log in

Guitar Tabs Explorer
Neil Diamond guitar chords for Sweet caroline (Ver. 3)

Guitar chords with lyrics

Sweet Caroline - Neil Diamond Capo 2
For Solo Acoustic performance I personally don't use the Capo
Link to a very helpful YouTube Video-- https://youtu.be/oPABg9AZbEg


A chord diagramD/AD/A = {X0777X} which is a DMaj over an A chord diagramA majorA Bass Note

A chord diagramA major 6A6 = {X02222}  Is the Second Chord in each “Pre Chorus”

Example      A chord diagramA majorA        A chord diagramA major 6A6 = {X02222}
              Hands….     Touching Hands

Intro:

Tuck The Guitar Pick Or Use The Pick and Middle Finger
Palm Mute The Open String Bass Note a Steady 1-2-3-4 Thump,Thump,Thump,Thump.


e|-------------------------------------------------------------|
B|-------------------------------------------------------------|
G|-------------------------------------------------------------|
D|-------------------------------------------------------------| 2X
A|---2----4---5------------2-----4--5---4---2---------4--5--2--|
E|---0--------0-----0------0--------0-------0-------0-------0--|

e|------------------------------------------------------------|
B|------------------------------------------------------------|
G|------------------------------------------------------------|
D|---0----2---4------------0----2---4---2---0--------4—2--0---| 2X
A|------------------------------------------------------------|
E|---0--------0-----0------0--------0-------0-----0-------0---|

e|------------------------------------------------------------|
B|------------------------------------------------------------|
G|------------------------------------------------------------|
D|---4----6---7-------------4----6---7---6---4--------7—6--2--|
A|------------------------------------------------------------|
E|---0--------0-----0-------0--------0-------0-----0-------0--|

                                    A chord diagramD/AD/A     A chord diagramE MajorE      A chord diagramA majorA      A chord diagramE MajorE
e|------------------------------------------4------9------X---|
B|-----------------------------------7------5------10-----9---|
G|-----------------------------------7------4------9------9---|
D|---4----6---7-------------4----6---7------6------11-----9---|
A|-----------------------------------0------X------0------X---|
E|---0--------0-----0-------0----------------------0------0---|

                         A chord diagramD/AD/A       A chord diagramA majorA      A chord diagramD/AD/A
I’ve Been Inclined:  e|---10-------9-------2------------------|
                     B|---10------10-------3------------------|
                     G|---11-------9-------2------------------|
                     D|----0-------0-------0------------------|
                     A|----0-------0-------0------------------|
                     E|---------------------------------------|
                          “Bop     Bop     Bahhhh”

A chord diagramE MajorE  A chord diagramE MajorE    A chord diagramE MajorE  A chord diagramE MajorE   A chord diagramE MajorE  A chord diagramD/AD/A       A chord diagramE MajorE           A chord diagramA majorA             A chord diagramE MajorE


Verse:

A chord diagramA majorA              A chord diagramD MajorD
Where it began, I can’t begin to know when
A chord diagramA majorA                            A chord diagramE MajorE
But then I know it’s growing strong

A chord diagramA majorA                 A chord diagramD MajorD
Was in the Spring, then Spring became the Summer.
A chord diagramA majorA                              A chord diagramE MajorE
Who’d have believed you’d come along?


Pre-Chorus:

A chord diagramA majorA     A chord diagramA major 6A6
Hands,  touching hands
A chord diagramE MajorE             A chord diagramD MajorD                     A chord diagramE MajorE  A chord diagramE MajorE A chord diagramD MajorD A chord diagramE MajorE
Reaching out, touching me, touching you


Chorus:

A chord diagramA majorA         A chord diagramD MajorD   A chord diagramD MajorD A chord diagramA majorA A chord diagramD MajorD                            A chord diagramE MajorE    A chord diagramE MajorE A chord diagramD MajorD A chord diagramE MajorE
Sweet Caroline,     good times never seemed so good
A chord diagramA majorA            A chord diagramD MajorD    A chord diagramD MajorD A chord diagramA majorA A chord diagramD MajorD                       A chord diagramE MajorE
I’ve been inclined,     to believe they never would
A chord diagramD MajorD   A chord diagramC# minorC#m A chord diagramB minorBm
But now I


Verse:

A chord diagramA majorA                 A chord diagramD MajorD
Look at the night, and it don’t seem so lonely
A chord diagramA majorA                       A chord diagramE MajorE
We fill it up with only two

A chord diagramA majorA               A chord diagramD MajorD
And when I hurt, hurting runs off my shoulders
A chord diagramA majorA                           A chord diagramE MajorE
How can I hurt when holding you?


Pre-Chorus:

A chord diagramA majorA    A chord diagramA major 6A6
Warm,  touching warm
A chord diagramE MajorE            A chord diagramD MajorD                      A chord diagramE MajorE  A chord diagramE MajorE A chord diagramD MajorD A chord diagramE MajorE
Reaching out, touching me, touching you


Chorus:

A chord diagramA majorA         A chord diagramD MajorD   A chord diagramD MajorD A chord diagramA majorA A chord diagramD MajorD                            A chord diagramE MajorE    A chord diagramE MajorE A chord diagramD MajorD A chord diagramE MajorE
Sweet Caroline,     good times never seemed so good
A chord diagramA majorA            A chord diagramD MajorD    A chord diagramD MajorD A chord diagramA majorA A chord diagramD MajorD                       A chord diagramE MajorE
I’ve been inclined,     to believe they never would
A chord diagramD MajorD   A chord diagramC# minorC#m A chord diagramB minorBm
Oh  no  no


Instrumental:

A chord diagramE MajorE  A chord diagramE MajorE    A chord diagramE MajorE  A chord diagramE MajorE   A chord diagramE MajorE  A chord diagramD/AD/A     A chord diagramE MajorE      A chord diagramA majorA     A chord diagramE MajorE


Chorus:

A chord diagramA majorA         A chord diagramD MajorD   A chord diagramD MajorD A chord diagramA majorA A chord diagramD MajorD                           A chord diagramE MajorE    A chord diagramE MajorE A chord diagramD MajorD A chord diagramE MajorE
Sweet Caroline,    good times never seemed so good
A chord diagramA majorA       A chord diagramD MajorD    A chord diagramD MajorD A chord diagramA majorA A chord diagramD MajorD                   A chord diagramE MajorE                    A chord diagramA majorA
I’ve inclined, to believe they never would . . .Sweet Caroline


*********************

|X    Dead note

Other versions of Sweet Caroline

Sweet carolineChords
Sweet caroline (Ver. 2)Chords
Sweet caroline (Ver. 4)Chords
Sweet caroline intro ukuleleChords
Sweet caroline ukuleleChords
Sweet carolineTabs

Almost there ...

Sign in to get your own page with links to favourite songs and more. You are just one click away...

Login with Facebook Login with Google