Log in

One click and you are in

Login with Facebook Login with Google

Why sign up and log in

Guitar Tabs Explorer
Neil Diamond bass tabs for Hot august night crunchy ganola suite

Hot August Night Crunchy Ganola Suite bass tab by Neil Diamond

Neil Diamond bass tabs for Hot august night crunchy ganola suite

Bass tabs

Tuning: Standard (E A D G)


Intro:
     Q E Q E Q  Q E E E E E E  Q E Q E Q  Q E E E E E Eg
G|-----|--------------|----------------|--------------|----------------|
D|-Wx4-|--------------|----------------|--------------|----------------|
A|-----|-5----5----5--|-5--------------|-5----5----5--|-5--------------|
E|-----|----5----5----|----5-4-3-3-4-5-|----5----5----|----5-4-3-3-4-5-|
 Q E Q E Q  Q E E E E E E  Q E Q E Q  Q E E E E E E
G|--------------|----------------|--------------|----------------|
D|--------------|----------------|--------------|----------------|
A|-5----5----5--|-5--------------|-5----5----5--|-5--------------|
E|----5----5----|----5-4-3-3-4-5-|----5----5----|----5-4-3-3-4-5-|


  Q E Q E Q  Q E E E E E E  Q E Q E Q  Q E E E E E E
G||---------------|----------------|--------------|-----------------||
D||o-7----7----7--|-7--------------|-7----7----7--|-7--------------o||
A||o----7----7----|----7-6-5-5-6-7-|----7----7----|----7-6-5-5-6-7-o||
E||---------------|----------------|--------------|-----------------||


  W   W   W   W  E E E E H   Q S S S S S S S S S S S S
G|-----|------|------|------|------------||------------------------------|
D|-h7--|------|------|------|-7-7-7-7-h7-||o-------7-7-7-7-7-7-5---5-----|
A|-----|--h0--|------|-h12--|------------||o---0-7---------------7---4---|
E|-----|------|--h5--|------|------------||------------------------------|


 Q S S S S S S S S S S S S    Q  Q  Q  Q
G|-----------------------------||-----------------|
D|--------7-7-7-7-7-7-5---5---o||-----------------|
A|----0-7---------------7---4-o||------h5------h5-|
E|-----------------------------||--h5------h5-----|

  Q  Q  Q  Q  Q  Q  Q  Q
G|----------------|------------------|
D|----------------|------------------|
A|-----h5------h5-|-----h5------h5---|
E|-h5------h5-----|-h5------h5-------|


  Q. S S S S Q.  Q. S S S S Q.  Q. S S S S Q.
G||--------------------|--------------------|--------------------|
D||--------------------|--------------------|--------------------|
A||--------------------|--------------------|--------------------|
E||-5---5--5--5--5--5--|-5---5--5--5--5--5--|-5---5--5--5--5--5--|


  Q. S S S S Q.   E E  Q  Q  Q
G|----------------------|----------------------|
D|----------------------|----------------------|
A|----------------------|----------------------|
E|--5---5--5--5--5--5---|--3--4--h5--h5--h5----|


 Q.  Q.  E  E  S  S.  s.  H.  E E  Q  Q  Q
G|-----------------|-------------------|---------------------|
D|-----------------|-------------------|---------------------|
A|-----------------|-------------------|---------------------|
E|-5----5----5---5-|--5---5----5----5--|--3--4---h5--h5--h5--|


 Q Q Q Q  Q Q Q Q   Q Q Q Q  Q Q Q Q
G|-------------|--------------|------------|---------------|
D|-------------|--------------|-7--7--7--7-|-7--7--7--7----|
A|-------------|--------------|------------|---------------|
E|-5--5--5--5--|-5--5--5--5---|------------|---------------|


 E E E E E E Q   E E Q Q Q  Q Q Q Q  Q Q Q Q
G|----------------------|-----------------|-------------|-------------|
D|-7--------------------|-----------------|-------------|-------------|
A|----7--6--5--5--6--7--|-----------------|-------------|-------------|
E|----------------------|--3--4--5--5--5--|-5--5--5--5--|-5--5--5--5--|


 Q Q Q Q  Q Q Q Q   W   W    W   W
G|-------------|-------------|------|-------|------|-------|
D|-------------|-------------|------|-------|------|-h7----|
A|-------------|-------------|-h0---|-------|-h0---|-------|
E|-5--5--5--5--|-5--5--5--5--|------|-h5----|------|-------|


 Q S S S S S S S S S S S S  Q S S S S S S S S S S S S
G|-------------------------------------|---------------------------------------|
D|---------7--7--7--7--7--7--5-----5---|---------7--7--7--7--7--7--5-----5-----|
A|---0--7-----------------------7----4-|---0--7-----------------------7-----4--|
E|-------------------------------------|---------------------------------------|


 S S S S S S S S S S S S Q  S S S S S S S S S S S S Q  W   W  W
G|---------------------------|-----------------------------|----|----|-------|
D|-----7-7-7-7-7-7-5---5-----|------7-7-7-7-7-7-5---5------|-7--|--5-|--4----|
A|-0-7---------------7---4---|--0-7---------------7---4----|----|----|-------|
E|---------------------------|-----------------------------|----|----|-------|


  Q S S  S S S S S S S S S S
G||----------------------------------|
D||o-----------7--7--7-7-7-7-5---5---|
A||o----0--7-------------------7---4-|
E||----------------------------------|


 Q S S S S S S S S S S S S    W   W   W
G|-----------------------------||------|------|---------||
D|--------7-7-7-7-7-7-5---5----||---7--|---5--|---4----o||
A|----0-7---------------7---4--||------|------|--------o||
E|-----------------------------||------|------|---------||


  Q  Q  Q  Q   Q  Q  Q  Q   Q  Q  Q  Q  Q. S S S S Q.
G|-----------------|-----------------|-----------------|-------------------|
D|-----------------|-----------------|-----------------|-------------------|
A|-----h5------h5--|-----h5------h5--|-----h5------h5--|-------------------|
E|-h5------h5------|-h5------h5------|-h5------h5------|-5---5--5--5--5-5--|


 Q.  S S S S Q.   Q.  S S  S S Q.
G|-----------------------|------------------------|
D|-----------------------|------------------------|
A|-----------------------|------------------------|
E|-5----5--5--5--5--5----|-5----5--5---5--5--5----|


 Q.  S S S S Q.   +W
G|-----------------------|--------|
D|-----------------------|--------|
A|-----------------------|--------|
E|-5----5--5--5--5--5----|-(5)----|


 E E  Q  Q  Q  Q.  Q.  E E  Q. Q. E E
G|-------------------|----------------|---------------|
D|-------------------|----------------|---------------|
A|-------------------|----------------|---------------|
E|-3--4--h5--h5--h5--|-5----5----5--5-|-5---5---5--5--|


 E E  Q  Q  Q  Q Q Q Q  Q Q Q Q  Q Q Q Q
G|-------------------|------------|-------------|---------------|
D|-------------------|------------|-------------|----7--7--7----|
A|-------------------|------------|-------------|---------------|
E|-3--4--h5--h5---h5-|-5--5--5--5-|-5--5--5--5--|-5-------------|


 Q Q Q Q  E E E E E E Q   E  E  Q  Q  Q  Q  Q  Q  Q
G|-------------|---------------------|---------------------|----------------|
D|-7--7--7--7--|------------------7--|---------------------|----------------|
A|-------------|-7--6--5--5--6--7----|---------------------|----------------|
E|-------------|---------------------|--3----4--h5--h5--h5-|--5---5---5---5-|


 Q  Q  Q  Q  Q  Q  Q  Q  Q  Q  Q  Q   W   W    W   W
G|---------------|---------------|----------------|-------|------|-------|-------|
D|---------------|---------------|----------------|-------|------|-------|-h7----|
A|---------------|---------------|----------------|--h0---|------|--h0---|-------|
E|-5---5---5---5-|-5---5---5---5-|-5---5---5---5--|-------|-h5---|-------|-------|


 S S S S S S S S S S S S Q  S S S S S S S S S S S S Q
G|----------------------------|-------------------------------|
D|-----7-7-7-7-7-7-5---5------|-----7-7-7-7-7-7-5---5---------|
A|-0-7---------------7---4----|-0-7---------------7---4-------|
E|----------------------------|-------------------------------|


 S S S S S S S S S S S S Q
G|----------------------------|
D|-----7-7-7-7-7-7-5---5------|
A|-0-7---------------7---4----|
E|----------------------------|


 S S S S S S S S S S S S Q  W     W     W
G|---------------------------|----------|----------|------|
D|-----7-7-7-7-7-7-5---5-----|-7--------|-5--------|-4----|
A|-0-7---------------7---4---|----------|----------|------|
E|---------------------------|----------|----------|------|


      Q S S S S S S S S S S S S
G||-------------------------------|
D||o----------7-7-7-7-7-7-5---5---|
A||o------0-7---------------7---4-|
E||-------------------------------|


 Q S S S S S S S S S S S S   W     W     W
G|----------------------------||----------|----------|-------||
D|--------7-7-7-7-7-7-5---5---||-7--------|-5--------|-4----o||
A|----0-7---------------7---4-||----------|----------|------o||
E|----------------------------||----------|----------|-------||


  Q  Q  Q  Q   Q  Q  Q  Q   Q  Q  Q  Q
G|-----------------|-----------------|-------------------|
D|-----------------|-----------------|-------------------|
A|-----h5------h5--|-----h5------h5--|-----h5------h5----|
E|-h5------h5------|-h5------h5------|-h5------h5--------|


 Q.  S S S S Q.   Q.  S S S S Q.   Q.  S S S S Q.
G|-------------------|-------------------|--------------------|
D|-------------------|-------------------|--------------------|
A|-------------------|-------------------|--------------------|
E|-5----5-5-5-5-5----|-5----5-5-5-5-5----|-5----5-5-5-5-5-----|


 Q Q Q Q  Q Q Q Q  Q Q Q Q   Q  Q  E E Q   +W
G|-------------|-------------|-------------|--------------|--------------------|---------*|
D|-------------|-------------|-------------|--7--7--7--7--|--h7--h7------------|---------*|
A|-------------|-0--0--0--0--|-12-12-12-12-|--------------|--------------------|---------*|
E|-5--5--5--5--|-------------|-------------|--------------|----------h5-h5-h5--|-h(5)----*|


Duration 🏷Legend
---------------
W - whole; H - half; Q - quarter; E - 8th; S - 16th; T - 32nd; X - 64th; a - acciaccatura
+ - note tied to previous; . - note dotted; .. - note double dotted

Tablature 🏷Legend
----------------
 h  - hammer-on
 | - bar
|| - double bar
||o - repeat start
o|| - repeat end
*| - double bar (ending)
 : - bar (freetime)
 $ - Segno
 & - Coda
Tempo markers - = BPM(8/16=s8/s16), where s8 = swing 8ths, s16 = swing 16ths


***************************************************************************************
* Generated using Power Tab Editor by Brad Larsen - http://powertab.guitarnetwork.org *
**************************************************************************************

Almost there ...

Sign in to get your own page with links to favourite songs and more. You are just one click away...

Login with Facebook Login with Google