Log in

One click and you are in

Login with Facebook Login with Google

Why sign up and log in

Guitar Tabs Explorer
Diaframma bass tabs for Delorenzo

Bass tabs

ALBUM: SIBERIA (1984)
BASSIST: L. CHICCHI


INTRO/VERSE

E -----------------------------------------------|
A -0-0--8h10-8h10-8h10---0-0--8h10-8h10-8h10-----|
D ---------------------8---------------------8---|
G -----------------------------------------------|

E -----------------------------------------------------|
A -0-0--10h12-10h12-10h12----0-0--10h12-10h12-10-------|
D ------------------------10---------------------12/10-|
G -----------------------------------------------------|
VARIATION

E --------------------------------------------------------|
A -0-0--8h10-8h10-8h10---0-0--8h10-8h10-------------------|
D ---------------------8----------------12-12-12-12--10---|
G --------------------------------------------------------|

E --------------------------------------------------------|
A -0-0--10h12-10h12-10h12----0-0--10h12-10h12-10--/17-15--|
D ------------------------10------------------------------|
G --------------------------------------------------------|


si può anche suonare (e penso che sia il modo piu corretto) partendo dal 3 tasto sulla
del RE... lasciando la sequenza tale e quale...


BRIDGE

E -------------------------------------------------------------------------12-|
A -0-12-0--12-12-10--0-0-12-0--12-12-10--0-0-12-0--12-12-10--0-0-12-0-12-10---|
D ----------------------------------------------------------------------------|
G ----------------------------------------------------------------------------|

BACK TO THE VERSE

BRIDGE 2

E --12-12--0--12-12--12-12-0--10-10--0-10-10--|
A --------------------------------------------|
D --------------------------------------------|
G --------------------------------------------|


OUTRO

E ----------------------------------10-10-10-10-10-9--9-9-9-9-9-9--|
A --12-12--12-12--0--12-12-12-12-0---------------------------------|
D -----------------------------------------------------------------|
G -----------------------------------------------------------------|

E --12-12-12-12-12--10-10-10-10-10--9-9-9-9-9--7-7-7-7-7-7-7-7-----|
A -----------------------------------------------------------------|
D -----------------------------------------------------------------|
G -----------------------------------------------------------------|


CAPOLAVORO

Almost there ...

Sign in to get your own page with links to favourite songs and more. You are just one click away...

Login with Facebook Login with Google