Log in

One click and you are in

Login with Facebook Login with Google

Why sign up and log in

Guitar Tabs Explorer
Diablo Swing Orchestra guitar tabs for Mass rupture

Guitar tabs with lyrics

Tuning: Drop A chord diagramA majorA (A chord diagramA majorA A chord diagramE MajorE A chord diagramA majorA A chord diagramD MajorD A chord diagramF#F# A chord diagramBB)


Intro Clean:

e|----------------------------------------| |
b|10--10--10-10h11p10-10--10-10h11p10--8--| |
G|---------------------------------------·|·|
D|-7---7---7--7h8p7----7---7-7h8p7----5---| |
A|-0----------0--------------0------------|·|
E|----------------------------------------| |
A|----------------------------------------| |
In love and in glory
We worship her story

Distorted Intro (1:12-1:24):
e|----------------------------------| |
b|----------------------------------| |
G|----------------------------------| |
D|----------------------------------|·|
A|----------------------------------| |
E|----------------------------------|·|
A|-0--1--2--0--1-2-0--1--2--0--1-2--| |
  PM---------------------------------^ (stops palm mute at last repeat)

Band (1:25-1:53):
e|----------------------------------------------------------|   |---------|
b|----------------------------------------------------------|   |---------|
G|----------------------------------------------------------| x4|---------|
D|----------------------------------------------------------|   |---------|
A|----------------------------------------------------------| x4|---------|
E|-0-0--1--2--0-0--1--2--0-0--1--0-0-1--2--0-0--1--2--0-0--1| · |-0-------|
A|-0-0--1--2--0-0--1--2--0-0--1--0-0-1--2--0-0--1--2--0-0--1|   |-0-------|
  PM-------------------------------------------------------^

Pre-Verse (1:53-2:06):
e|--------------------------------------|----------------------------------|
b|--------------------------------------|----------------------------------|
G|--------------------------------------|----------------------------------|
D|---------------------------------X2---|-------------------------------X2-|
A|--------------------------------------|----------------------------------|
E|--------------------------------------|----------------------------------|
A|-12-0-0-12-7---8----12-0-0-12-7---8---|-6-6-6-6-0---1----6-6-6-6-0---1---|


Verse (2:06-2:21):
e|--------------------------------------|----------------------------------|
b|--------------------------------------|----------------------------------|
G|--------------------------------------|----------------------------------|
D|---------------------------------X2---|-------------------------------X2-|
A|--------------------------------------|----------------------------------|
E|--------------------------------------|----------------------------------|
A|-12-0-0-12-7---8----12-0-0-12-7---8---|-7-7-7-7-0---1----7-7-7-7-0---1---|
Made a believer, I'm made out of rays from her skin

e|--------------------------------------|----------------------------------|
b|--------------------------------------|----------------------------------|
G|--------------------------------------|----------------------------------|
D|---------------------------------X2---|-------------------------------X2-|
A|--------------------------------------|----------------------------------|
E|--------------------------------------|----------------------------------|
A|-12-0-0-12-7---8----12-0-0-12-7---8---|-6-6-6-6-0---1----6-6-6-6-0---1---|
Blinded by faith, I thought her real from within


Bridge (2:21-2:34):
e|------------------------|-------------------------|
b|------------------------|-------------------------|
G|------------------------|-------------------------|
D|------------------------|-------------------------|
A|------------------------|-------------------------|
E|------------------------|-------------------------|
A|-5---5-8--5--5--5--8--5-|-4---4-7--4--4--4--7--4--|
Immersed in a sense to defend

e|------------------------|-------------------------|
b|------------------------|-------------------------|
G|------------------------|-------------------------|
D|------------------------|-------------------------|
A|------------------------|-------------------------|
E|-3---3-6--3--3--3--6--3--|------------------------|
A|-------------------------|-5---5-8--5--5--5--8--5-|
My thoughts went black just as by heaven sent

e|------------------------|-------------------------|
b|------------------------|-------------------------|
G|------------------------|-------------------------|
D|------------------------|-------------------------|
A|------------------------|-------------------------|
E|------------------------|-------------------------|
A|-5---5-8--5--5--5--8--5-|-4---4-7--4--4--4--7--4--|
Clean your feathers and rise

e|------------------------|-------------------------|
b|------------------------|-------------------------|
G|------------------------|-------------------------|
D|------------------------|-------------------------|
A|------------------------|-------------------------|
E|-3---3-6--3--3--3--6--3--|------------------------|
A|-------------------------|-5---5-8--5--5--5--8--5-|
Phoenix burns with them ether eyes tonight

e|-----------|
b|-----------|
G|-----------|
D|-----------|
A|--0--------|
E|--0--------|
A|--0--------|


Chorus (2:34):

(Acoustic Guitar)
e|--0---0---0--|--0---0---0--|
b|--2---2---2--|--2---2---2--|
G|--2---2---2--|--2---2---2--|
D|--2---2---2--|--2---2---2--|
A|--0---0---0--|--0---0---0--|
E|-------------|-------------|
A|-------------|-------------|
Heed her words

e|--0---0---0--|--0---0---0--|
b|--3---3---3--|--2---2---2--|
G|--3---3---3--|--2---2---2--|
D|--3---3---3--|--2---2---2--|
A|--0---0---0--|--0---0---0--|
E|-------------|-------------|
A|-------------|-------------|
Soothing and beautiful

e|--0---0---0--|--0---0---0--|
b|--2---2---2--|--2---2---2--|
G|--2---2---2--|--2---2---2--|
D|--2---2---2--|--2---2---2--|
A|--0---0---0--|--0---0---0--|
E|-------------|-------------|
A|-------------|-------------|
Freed from the herd

e|--0---0---0--|--0---0---0--|
b|--3---3---3--|--2---2---2--|
G|--3---3---3--|--2---2---2--|
D|--3---3---3--|--2---2---2--|
A|--0---0---0--|--0---0---0--|
E|-------------|-------------|
A|-------------|-------------|
Seen and touched by the merciful

e|--0---0---0--|--0---0---0--|
b|--2---2---2--|--2---2---2--|
G|--2---2---2--|--2---2---2--|
D|--2---2---2--|--2---2---2--|
A|--0---0---0--|--0---0---0--|
E|-------------|-------------|
A|-------------|-------------|
Holy lies, deep inside

e|--0---0---0--|--0---0---0--|
b|--3---3---3--|--2---2---2--|
G|--3---3---3--|--2---2---2--|
D|--3---3---3--|--2---2---2--|
A|--0---0---0--|--0---0---0--|
E|-------------|-------------|
A|-------------|-------------|
Her body a temple, we cannot hide

e|--0---0---0--|--0---0---0--|
b|--2---2---2--|--2---2---2--|
G|--2---2---2--|--2---2---2--|
D|--2---2---2--|--2---2---2--|
A|--0---0---0--|--0---0---0--|
E|-------------|-------------|
A|-------------|-------------|
Blood runs dry, we're paralyzed

e|--0---0---0--|--0---0---0--|
b|--3---3---3--|--2---2---2--|
G|--3---3---3--|--2---2---2--|
D|--3---3---3--|--2---2---2--|
A|--0---0---0--|--0---0---0--|
E|-------------|-------------|
A|-------------|-------------|
Saved 'cause we're immortal now

e|----------------------------------------| |
b|10--10--10-10h11p10-10--10-10h11p10--8--| |
G|---------------------------------------·|·|
D|-7---7---7--7h8p7----7---7-7h8p7----5---| |
A|-0----------0--------------0------------|·|
E|----------------------------------------|-|
A|----------------------------------------|-|
In love and in glory
We worship her story


Bridge (3:36-4:00):
e|----------------------------------------------------------|   |---------|
b|----------------------------------------------------------|   |---------|
G|----------------------------------------------------------| x4|---------|
D|----------------------------------------------------------|   |---------|
A|----------------------------------------------------------| x4|---------|
E|-0-0--1--2--0-0--1--2--0-0--1--0-0-1--2--0-0--1--2--0-0--1| · |-0-------|
A|-0-0--1--2--0-0--1--2--0-0--1--0-0-1--2--0-0--1--2--0-0--1|   |-0-------|
  PM-------------------------------------------------------^


Verse 2 (4:00-4:15):
e|--------------------------------------|----------------------------------|
b|--------------------------------------|----------------------------------|
G|--------------------------------------|----------------------------------|
D|---------------------------------X2---|-------------------------------X2-|
A|--------------------------------------|----------------------------------|
E|--------------------------------------|----------------------------------|
A|-12-0-0-12-7---8----12-0-0-12-7---8---|-7-7-7-7-0---1----7-7-7-7-0---1---|
Seek and reveal, release and then cleanse what you fear

e|--------------------------------------|----------------------------------|
b|--------------------------------------|----------------------------------|
G|--------------------------------------|----------------------------------|
D|---------------------------------X2---|-------------------------------X2-|
A|--------------------------------------|----------------------------------|
E|--------------------------------------|----------------------------------|
A|-12-0-0-12-7---8----12-0-0-12-7---8---|-6-6-6-6-0---1----6-6-6-6-0---1---|
She reminds me of truth, reminds me of trust and what's real


Pre-Chorus (4:15-4:41):
e|------------------------|-------------------------|
b|------------------------|-------------------------|
G|------------------------|-------------------------|
D|------------------------|-------------------------|
A|------------------------|-------------------------|
E|------------------------|-------------------------|
A|-5---5-8--5--5--5--8--5-|-4---4-7--4--4--4--7--4--|
She is silence reborn

e|-------------------------|-------------------------|
b|-------------------------|-------------------------|
G|-------------------------|-------------------------|
D|-------------------------|-------------------------|
A|-------------------------|-------------------------|
E|-3---3-6--3--3--3--6--3--|------------------------|
A|-------------------------|-5---5-8--5--5--5--8--5-|
I'm dragged into light with a mind that's torn

e|------------------------|-------------------------|
b|------------------------|-------------------------|
G|------------------------|-------------------------|
D|------------------------|-------------------------|
A|------------------------|-------------------------|
E|------------------------|-------------------------|
A|-5---5-8--5--5--5--8--5-|-4---4-7--4--4--4--7--4--|
Blessed once again in her arms

e|-------------------------|-------------------------|
b|-------------------------|-------------------------|
G|-------------------------|-------------------------|
D|-------------------------|-------------------------|
A|-------------------------|-------------------------|
E|-3---3-6--3--3--3--6--3--|------------------------|
A|-------------------------|-5---5-8--5--5--5--8--5-|
Divine, and with a snake's charm
She is peace

e|-----------------------------|
b|-----------------------------|
G|-----------------------------|
D|-----------------------------|
A|-------------------------4h5-|
E|-------3h5-------0h3h5h6-----|
A|-0---0-----0---0-------------|


Last Chorus (4:41):
e|-----------------------------|--------------------------|
b|-----------------------------|--------------------------|
G|-----------------------------|--------------------------|
D|-----------------------------|--------------------------|
A|-------------------------4h5-|--------------------------|
E|-------3h5-------0h3h5h6-----|-------3h5-------/6--5----|
A|-0---0-----0---0-------------|-0---0-----0---0--------0-|
Heed her words

e|--------------------------|-----------------------------|
b|--------------------------|-----------------------------|
G|--------------------------|-----------------------------|
D|--------------------------|-----------------------------|
A|-------1---------1--0-----|-------------------------4h5-|
E|-----------------------3--|-------3h5-------0h3h5h6-----|
A|-1---1-----1---1----------|-0---0-----0---0-------------|
Soothing and beautiful

e|-----------------------------|--------------------------|
b|-----------------------------|--------------------------|
G|-----------------------------|--------------------------|
D|-----------------------------|--------------------------|
A|-------------------------4h5-|--------------------------|
E|-------3h5-------0h3h5h6-----|-------3h5-------/6--5----|
A|-0---0-----0---0-------------|-0---0-----0---0--------0-|
Freed from the herd

e|--------------------------|-----------------------------|
b|--------------------------|-----------------------------|
G|--------------------------|-----------------------------|
D|--------------------------|-----------------------------|
A|-------1---------1--0-----|-------------------------4h5-|
E|-----------------------3--|-------3h5-------0h3h5h6-----|
A|-1---1-----1---1----------|-0---0-----0---0-------------|
Seen and touched by the merciful

e|-----------------------------|--------------------------|
b|-----------------------------|--------------------------|
G|-----------------------------|--------------------------|
D|-----------------------------|--------------------------|
A|-------------------------4h5-|--------------------------|
E|-------3h5-------0h3h5h6-----|-------3h5-------/6--5----|
A|-0---0-----0---0-------------|-0---0-----0---0--------0-|
Holy lies, deep inside

e|--------------------------|-----------------------------|
b|--------------------------|-----------------------------|
G|--------------------------|-----------------------------|
D|--------------------------|-----------------------------|
A|-------1---------1--0-----|-----------------------------|
E|-----------------------3--|-------3h5-------0h3h5p0h3h5-|
A|-1---1-----1---1----------|-0---0-----0---0-------------|
Her body a temple, we cannot hide

e|-----------------------------|--------------------------|
b|-----------------------------|--------------------------|
G|-----------------------------|--------------------------|
D|-----------------------------|--------------------------|
A|-------------------------4h5-|--------------------------|
E|-------3h5-------0h3h5h6-----|-------3h5-------/6--5----|
A|-0---0-----0---0-------------|-0---0-----0---0--------0-|
Blood runs dry, we're paralyzed

e|--------------------------|-----------------------------|
b|--------------------------|-----------------------------|
G|--------------------------|-----------------------------|
D|--------------------------|-----------------------------|
A|-------1---------1--0-----|-------------------------4h5-|
E|-----------------------3--|-------3h5-------0h3h5h6-----|
A|-1---1-----1---1----------|-0---0-----0---0-------------|
Saved 'cause we're immortal now


e|---------------------------|
b|---------------------------|
G|---------------------------|
D|---------------------------| x3
A|-------------------------5-|
E|-------3h5-----------5h6---|
A|-0---0-----0---0---0-------|
In love and in glory
We worship her story

e|---------------------------|
b|---------------------------|
G|---------------------------|
D|---------------------------|
A|---------------------------|
E|-------3h5-------6--6--6---|
A|-0---0-----0---0-----------|

e|---------------------------|
b|---------------------------|
G|---------------------------|
D|---------------------------| x3
A|-------------------------5-|
E|-------3h5-----------5h6---|
A|-0---0-----0---0---0-------|


e|-------------------|
b|-------------------|
G|-------------------|
D|-------------------|
A|-------------------|
E|--------6--5-6-5-3-|
A|-0---0-------------|


Outro:

e|----------------------------------| |
b|----------------------------------| |
G|----------------------------------| |
D|----------------------------------|·|
A|----------------------------------| |
E|----------------------------------|·|
A|-0--1--2--0--1-2-0--1--2--0--1-2--| |
  PM---------------------------------^ (stops palm mute at last repeat)


e|----------------------------------| |
b|----------------------------------| |
G|----------------------------------| |
D|----------------------------------|·|
A|----------------------------------| |
E|----------------------------------|·|
A|-0--0--0--0--0-0-0--0--0--0--0-0--| |


e|-----------|
b|-----------|
G|-----------|
D|-----------|
A|--0--------|
E|--0--------|
A|--0--------|

************************************

| h   Hammer-on
| p   Pull-off
| r   Release
| /   Slide up
| \   Slide down
| PM  Palm mute

Almost there ...

Sign in to get your own page with links to favourite songs and more. You are just one click away...

Login with Facebook Login with Google