Log in

One click and you are in

Login with Facebook Login with Google

Why sign up and log in

Guitar Tabs Explorer
Dhvani Bhanushali guitar tabs for Vaaste

Guitar tabs

Tuning: Standard (E A D G B E)


Intro:
E|--------------------------------------|
B|--\6--6--6--6---6--6--6---6--6--------|
G|--------------------------------------|
D|--------------------------------------|
A|--------------------------------------|
E|--------------------------------------|
E|----------------------------------------|
B|---6\8--8--8--8---8--8--8---8--8--------|
G|----------------------------------------|
D|----------------------------------------|
A|----------------------------------------|
E|----------------------------------------|

E|----------------------------------------------|
B|---8\10-10-10-10---10-10-10---10-10-----------|
G|----------------------------------------------|
D|----------------------------------------------|
A|----------------------------------------------|
E|----------------------------------------------|

E|-------------------------------------|
B|--10\11-11-11-11---11-11-11----------|
G|-------------------------------------|
D|-------------------------------------|
A|-------------------------------------|
E|-------------------------------------|


E|--------------------------------------|
B|--\6--6--6--6---6--6--6---6--6--------|
G|--------------------------------------|
D|--------------------------------------|
A|--------------------------------------|
E|--------------------------------------|

E|----------------------------------------|
B|---6\8--8--8--8---8--8--8---8--8--------|
G|----------------------------------------|
D|----------------------------------------|
A|----------------------------------------|
E|----------------------------------------|


E|--------------------------------------|
B|--\6--6--6--6---6--6--6---6--6--------|
G|--------------------------------------|
D|--------------------------------------|
A|--------------------------------------|
E|--------------------------------------|


E|----------------------------------------|
B|---6\8--8--8--8---8--8--8---8--8--------|
G|----------------------------------------|
D|----------------------------------------|
A|----------------------------------------|
E|----------------------------------------|

E|----------------------------------------------|
B|---8\10-10-10-10---10-10-10---10-10-----------|
G|----------------------------------------------|
D|----------------------------------------------|
A|----------------------------------------------|
E|----------------------------------------------|

E|-------------------------------------|
B|--10\11-11-11-11---11-11-11----------|
G|-------------------------------------|
D|-------------------------------------|
A|-------------------------------------|
E|-------------------------------------|


MAIN SONG
Vaste
E|------------------------------------------------------------------|
B|--13-11-10-13-11-10-13-11-10-------11\13-11-10--------------------|
G|-----------------------------------------------12-10--------------|
D|------------------------------------------------------------------|
A|------------------------------------------------------------------|
E|------------------------------------------------------------------|


E|---------------------------------------------------|
B|---------------10h11-10----------10----------------|
G|--10-10-12--------------12-10------12-10-10--------|
D|---------------------------------------------10h12-|
A|---------------------------------------------------|
E|---------------------------------------------------|

E|--------------------------------------------------------------------------|
B|--13-13-11-10-13-11-10-13-11-10-----------11\13-11-10---------------------|
G|-------------------------------------------------------12-10--------------|
D|--------------------------------------------------------------------------|
A|--------------------------------------------------------------------------|
E|--------------------------------------------------------------------------|


E|------------------------------------------------------------------------|
B|---------------10h11-10----------10-------------------------------------|
G|--10-10-12--------------12-10------12-10-10-----------------------------|
D|-----------------------------------------------------------------10h12--|
A|------------------------------------------------------------------------|
E|------------------------------------------------------------------------|


E|---------------------------------------|
B|--10----10hp11-------------------------|
G|------12------------12-10-10-10-10-10--|
D|---------------------------------------|
A|---------------------------------------|
E|---------------------------------------|

E|---------------------------------------|
B|--10----10hp11-------------------------|
G|------12------------12-10-10-10-10-10--|
D|---------------------------------------|
A|---------------------------------------|
E|---------------------------------------|


E|--------------------------------------------------------------|
B|--10----10hp11----------------------------------13--13-13-13--|
G|------12------------12-10-10-10-10-12-12----------------------|
D|--------------------------------------------------------------|
A|--------------------------------------------------------------|
E|--------------------------------------------------------------|


E|-----------------------------------------------------------------|
B|--13-11-10-13-11-10-13-11-10-------11\13-11-10-------------------|
G|----------------------------------------------12-10--------------|
D|-----------------------------------------------------------------|
A|-----------------------------------------------------------------|
E|-----------------------------------------------------------------|


E|----------------------------------------------------------------|
B|---------------10h11-10----------10-----------------------------|


G|--10-10-12--------------12-10------12-10-10-----------------------|
D|----------------------------------------------------------12\14---|
A|------------------------------------------------------------------|
E|------------------------------------------------------------------|


E|--15(x)--15-12-------------------------13-13------|
B|--------------------15--13h15--13h15--------------|
G|--------------------------------------------------|
D|--------------------------------------------------|
A|--------------------------------------------------|
E|--------------------------------------------------|


E|--15(x)--15-12-------------------------13-13------|
B|--------------------15--13h15--13h15--------------|
G|--------------------------------------------------|
D|--------------------------------------------------|
A|--------------------------------------------------|
E|--------------------------------------------------|


E|-----------------------------------------------|
B|--6(x)--6--6--5---5--6---6--8---8---6--6---5---|
G|-----------------------------------------------|
D|-----------------------------------------------|
A|-----------------------------------------------|
E|-----------------------------------------------|


E|-----------------------------------------------|
B|--6(x)--6--6--5---5--6---6--8---8---6--6---5---|
G|-----------------------------------------------|
D|-----------------------------------------------|
A|-----------------------------------------------|
E|-----------------------------------------------|


E|-----------------------------------------------|
B|--6(x)--6--6--5---5--6---6--8---8---6--6---5---|
G|-----------------------------------------------|
D|-----------------------------------------------|
A|-----------------------------------------------|
E|-----------------------------------------------|


E|--------------------|
B|-----10------10-10--|
G|--12----12----------|
D|--------------------|
A|--------------------|
E|--------------------|

E|--------------------|
B|-----10------10-10--|
G|--12----12----------|
D|--------------------|
A|--------------------|
E|--------------------|

E|-------------------------------|
B|-------11-10-------------------|
G|--12-------12-10---------------|
D|------------------------12-10--|
A|-------------------------------|
E|-------------------------------|


E|--------------------|
B|-----10------10-10--|
G|--12----12----------|
D|--------------------|
A|--------------------|
E|--------------------|

E|--------------------|
B|-----10------10-10--|
G|--12----12----------|
D|--------------------|
A|--------------------|
E|--------------------|

E|-------------------------------|
B|-------11-10-------------------|
G|--12----------12-10--10-10-----|
D|-------------------------------|
A|-------------------------------|
E|-------------------------------|


E|--10-13-13-13-|
B|--------------|
G|--------------|
D|--------------|
A|--------------|
E|--------------|

E|--10-13-13-13-13p12-|
B|--------------------|
G|--------------------|
D|--------------------|
A|--------------------|
E|--------------------|

E|--10-13-13-13-|
B|--------------|
G|--------------|
D|--------------|
A|--------------|
E|--------------|

E|--10-10-17-15-15-|
B|-----------------|
G|-----------------|
D|-----------------|
A|-----------------|
E|-----------------|

E|---------------------------------------|
B|--10----10hp11-------------------------|
G|------12------------12-10-10-10-10-10--|
D|---------------------------------------|
A|---------------------------------------|
E|---------------------------------------|


E|---------------------------------------|
B|--10----10hp11-------------------------|
G|------12------------12-10-10-10-10-10--|
D|---------------------------------------|
A|---------------------------------------|
E|---------------------------------------|


E|--------------------------------------------------------------|
B|--10----10hp11----------------------------------13--13-13-13--|
G|------12------------12-10-10-10-10-12-12----------------------|
D|--------------------------------------------------------------|
A|--------------------------------------------------------------|
E|--------------------------------------------------------------|

E|------------------------------------------------------------------|
B|--13-11-10-13-11-10-13-11-10-------11\13-11-10--------------------|
G|-----------------------------------------------12-10--------------|
D|------------------------------------------------------------------|
A|------------------------------------------------------------------|
E|------------------------------------------------------------------|


E|--------------------------------------------------------------------|
B|---------------10h11-10----------10---------------------------------|

G|--10-10-12--------------12-10------12-10-10-------------------------|
D|--------------------------------------------------------------12/---|
A|--------------------------------------------------------------------|
E|--------------------------------------------------------------------|


************************************

| \  Slide down
| h  Hammer-on
| p  Pull-off
| /  Slide up
| (x)
| hp

************************************

Other versions of Vaaste

VaasteChords

↓ Add and view comments below ↓

What do you think about this song and these tabs?

Add your comments, questions, rant or a thumbs up below.

Almost there ...

Sign in to get your own page with links to favourite songs and more. You are just one click away...

Login with Facebook Login with Google