Log in

One click and you are in

Login with Facebook Login with Google

Why sign up and log in

Guitar Tabs Explorer
Devo tabs for Huboon stomp

Guitar tabs

Title: Huboon Stomp
Album: Chef Aid-The Southpark Album


Riff 1
-|--------------------------------------------------------------------------|-
-|-4-4-4-4-5-5-6-6-6b77-7-77------------------------------------------------|-
-|-4-4-4-4-5-5-6-6----------------------------------------------------------|-
-|-4-4-4-4-5-5-6-6----------------------------------------------------------|-
-|-2-2-2-2-3-3-4-4----------------------------------------------------------|-
-|--------------------------------------------------------------------------|-
Riff 2
-|--------------------------------------------------------------------------|-
-|-8-8-8-10-10-10-9-9-9-7-7-7-----------------------------------------------|-
-|-8-8-8-10-10-10-9-9-9-7-7-7-----------------------------------------------|-
-|-8-8-8-10-10-10-9-9-9-7-7-7-----------------------------------------------|-
-|-6-6-6-8--8--8--7-7-7-5-5-5-----------------------------------------------|-
-|--------------------------------------------------------------------------|-


Riff 3
-|--------------------------------------------------------------------------|-
-|-8-8-8-10-10-10-9-9-9-7-7-7-8-8-8-10-10-10-9-9-9--------------------------|-
-|-8-8-8-10-10-10-9-9-9-7-7-7-8-8-8-10-10-10-9-9-9--------------------------|-
-|-8-8-8-10-10-10-9-9-9-7-7-7-8-8-8-10-10-10-9-9-9--------------------------|-
-|-6-6-6-8--8--8--7-7-7-5-5-5-6-6-6-8--8--8--7-7-7--------------------------|-
-|--------------------------------------------------------------------------|-

W/Riff 1
Well I'm a Huboon baby I'm a cross ...

W/Riff 2
I did it to myself...

W/Riff 1
Well I'm a Huboon baby gonna mess around ....

W/Riff 3
Somebody's gonna be sorry like all you ....

Solo W/Riff1
He's a Huboon baby he's a cross between ....

W/Riff 2
I did it to myself...

W/Riff1
I'm a Huboon baby I'll grow up to be the ....

W/Riff 3
Somebody's gonna be sorry like all you wages ....

W/Riff 1
I'm a Huboon baby I'm a cross between a ....

Almost there ...

Sign in to get your own page with links to favourite songs and more. You are just one click away...

Login with Facebook Login with Google