Log in

One click and you are in

Login with Facebook Login with Google

Why sign up and log in

Guitar Tabs Explorer
The Devil Wears Prada tabs for Constance

Guitar tabs

Constance:
Dead Throne:
The Devil Wears Prada:


Tuning: A chord diagramBB A chord diagramGbGb A chord diagramBB A chord diagramE MajorE A chord diagramAbAb A chord diagramDbDb
Playthrough: https://www.youtube.com/edit o=U&video_id=pMxvGoda5ik
Riff 1: - 00:00: - 00:26: - x4:
- -----------------------------------------------------------------
- -----------------------------------------------------------------
- -----------------------------------------------------------------
- -----------------------------------------------------------------
- -5---------------------------------------------------------------
- -----0-0-0-8b----0-------0-0-0-0-----0-0-0-1b----0-0-0-0-0-1b----
PM     .....               .................       .........

- ---------------------------------------------------------------------------
- ---------------------------------------------------------------------------
- ---------------------------------------------------------------------------
- ---------------------------------------------------------------------------
- -5-----------------------8-8-8-8---------10-10-10-10-----------------------
- -----0-0-0-8b----5-5-5-5---------8-8-8-8-------------10-10-10-10-10h12\----
PM     .....


Riff 2: - 00:26: - 00:29:
- -----------------------------------------------------------------
- -----------------------------------------------------------------
- -----------------------------------------------------------------
- -0---------------------------------3-------1---------------------
- -0-------------------------------0-3-----0-1-----1-1-1-1---------
- -0-------------------------------0-3-----0-1-----1-1-1-1---------
PM                                 .       .       .......

Riff 3: - 00:29: - 00:42: - x2:
- -----------------------------------------------------
- -----------------------------------------------------
- -----------------------------------------------------
- -----------------------------------------------------
- -----------------------------------------------------
- -5(x6)----1(x6)----3(x4)-0(x8)---------10(x4)-12(x4)-
-
- -----------------------------------------------------
- ----------------15----15-----15-----15-----15-----15-
- -12----12--------------------------------------------
- -------------13----13----12-----12-----12-----12-----
- ----10----10-----------------------------------------
- -----------------------------------------------------

- -----------------------------------------------------
- -----------------------------------------------------
- -----------------------------------------------------
- -----------------------------------------------------
- -----------------------------------------------------
- -5(x6)----1(x6)----3(x4)-0(x16)----------------------
PM                         ...........................
- -----------------------------------------------------
- ----------------15----15-----15-----15-----15-----15-
- -12----12--------------------------------------------
- -------------13----13----12-----12-----12-----12-----
- ----10----10-----------------------------------------
- -----------------------------------------------------


Riff 4, Guitar 1 & 2: - 00:42: - 00:46:
- -----------------------------------------------------------------
- -----------------------------------------------------------------
- -----------------------------------------------------------------
- -----------------------------------------------------------------
- -0-0-0-0-0-0-0-0-0-0-0-0-0-0-0-0-0-0-0-----------0-0-0-----------
- -0-0-0-0-0-0-0-0-0-0-0-0-0-0-0-0-0-0-0-----------0-0-0---3br-----
PM .....................................................
- -----------------------------------------------------------------
- -----------------------------------------------------------------
- -----------------------------------------------------------------
- -----------------------------------------------------------------
- -0-0-0-0-0-0-0-0-0-0-0-0-0-0-0-0---------0-0-0-------------------
- -0-0-0-0-0-0-0-0-0-0-0-0-0-0-0-0---------0-0-0-----------3br-----


Riff 5: - 00:46: - 01:02:
- -----------------------------------------------------------------
- -----------------------------------------------------------------
- -----------------------------------------------------------------
- ---------7/8\7---7-------7/12----11------11/14---12------11------
- -0-0-0---5/6\5---5-------5/10----9-------9-/12---10------9-------
- -0-0-0-----------------------------------------------------------
PM .....

- -----------------------------------------------------------------
- -----------------------------------------------------------------
- -----------------------------------------------------------------
- ---------7/8\7---7-------7/12----11------8-------7---------------
- -0-0-0---5/6\5---5-------5/10----9-------6-------5-------0-------
- -0-0-0---------------------------------------------------0-------
PM .....                                                   .

- -----------------------------------------------------------------
- -----------------------------------------------------------------
- -----------------------------------------------------------------
- ---------7/8\7---7-------7/12----11------11/14---12------11------
- -0-0-0---5/6\5---5-------5/10----9-------9-/12---10------9-------
- -0-0-0-----------------------------------------------------------
PM .....

- -------------------------------------------------------------------------------------------------
- -------------------------------------------------------------------------------------------------
- -------------------------------------------------------------------------------------------------
- ---------7/8\7---7-------7/12----11------8-------7-----------------------------------------------
- -0-0-0---5/6\5---5-------5/10----9-------6-------5-------0-0-0-0-0-------------------------------
- -0-0-0---------------------------------------------------0-0-0-0-0-------------------------------
PM .....                                                   .........


Riff 6: - 00:59: - 01:02:
- -------------------------------------------------
- -15-15-15-15-15\13-13-13-13\10-10-10-10\6--6--6--
- -x--x--x--x--x--x--x--x--x--x--x--x--x--x--x--x--
- -12-12-12-12-12\10-10-10-10\7--7--7--7-\3--3--3--
- -------------------------------------------------
- -------------------------------------------------


Riff 7, Guitar 1 & 2: - 01:02: - 01:28: - x2:
- -----------------------------------------------------------------
- -15--15--15--15--15-\13--13--13--13-\10--10--10--10-/11--11--11--
- -x---x---x---x---x---x---x---x---x---x---x---x---x---x---x---x---
- -12--12--12--12--12-\10--10--10--10-\7---7---7---7--/8---8---8---
- -----------------------------------------------------------------
- -----------------------------------------------------------------
-
- -----------------------------------------------------------------
- -----------------------------------------------------------------
- -----------------------------------------------------------------
- -8---8---8---8---8---8---8---8---5---5---5---5---5\------1---1---
- -8---8---8---8---8---8---8---8---5---5---5---5---5\------1---1---
- -8---8---8---8---8---8---8---8---5---5---5---5---5\------1---1---


- -----------------------------------------------------------------
- -11-\7---7---7---7--/8---8--\7---7---7---7---7---7--/8---8--/10--
- -x---x---x---x---x---x---x---x---x---x---x---x---x---x---x---x---
- -8--\4---4---4---4--/5---5--\4---4---4---4---4---4--/5---5--/7---
- -----------------------------------------------------------------
- -----------------------------------------------------------------
-
- -----------------------------------------------------------------
- -----------------------------------------------------------------
- -----------------------------------------------------------------
- -0---0---0---0---0---0---0---0---0---0---0---0---0---0---0---0---
- -0---0---0---0---0---0---0---0---0---0---0---0---0---0---0---0---
- -0---0---0---0---0---0---0---0---0---0---0---0---0---0---0---0---


- -----------------------------------------------------------------
- -15--15--15--15--15-\13--13--13--13-\10--10--10--10-/11--11-\10--
- -x---x---x---x---x---x---x---x---x---x---x---x---x---x---x---x---
- -12--12--12--12--12-\10--10--10--10-\7---7---7---7--/8---8--\7---
- -----------------------------------------------------------------
- -----------------------------------------------------------------
-
- -----------------------------------------------------------------
- -----------------------------------------------------------------
- -----------------------------------------------------------------
- -8---8---8---8---8---8---8---8---10--10--10--10--10--10-/13------
- -8---8---8---8---8---8---8---8---10--10--10--10--10--10-/13------
- -8---8---8---8---8---8---8---8---10--10--10--10--10--10-/13------


- -----------------------------------------------------------------
- -10--------------------------------------------------------------
- -x---------------------------------------------------------------
- -7---------------------------------------------------------------
- -----------------------------------------------------------------
- -----------------------------------------------------------------
-
- -----------------------------------------------------------------
- -----------------------------------------------------------------
- -----------------------------------------------------------------
- -----------------------------------------------------------------
- ---------0-0-0---0-0-0---0-0-0---0-0-0---0-0-0---0-0-0---0-0-0---
- -12br----0-0-0---0-0-0---0-0-0---0-0-0---0-0-0---0-0-0---0-0-0---
PM         .....................................................


Riff 8: - 01:28: - 01:41:
- -----------------------------------------------------------------
- -----------------------------------------------------------------
- -----------------------------------------------------------------
- -----------------------------------------------------------------
- -----1-------1---------------------------------------5br---------
- -0-0-----0-0-----4---1---0-0-1---4b------0-------0---------------
PM ...     ...             ...                     .

- -----------------------------------------------------------------
- -----------------------------------------------------------------
- -----------------------5---------5--/7---7-----------------------
- -/7------------------------------------------------------6:v----
- -------6-----5-----------------------------------5--h6-----------
- -----------------0-----------0---------------0-------------------
PM                                             .

- -----------------------------------------------------------------
- -----------------------------------------------------------------
- -----------------------------------------------------------------
- -----------------------------------------------------------------
- -----1-------1---------------------------------------5br---------
- -0-0-----0-0-----4---1---0-0-1---4b------0-------0---------------
PM ...     ...             ...                     .

- -----------------------------------------------------------------
- -----------------------------------------------------------------
- -----------------------5---------5--/7---7---------------7:v----
- -/7--------------------------------------------------------------
- -------6-----5-----------------------------------5--h6-----------
- -----------------0-----------0---------------0-------------------
PM                                             .


Riff 9: - 01:41: - 01:54:
- -----------------------------------------------------
- -----------------------------------------------------
- -----------------------------------------------------
- -----------------------------------------------------
- -----------------------------------------------------
- -5(x6)----1(x6)----3(x4)-0(x8)---------10(x4)-12(x4)-

- -----------------------------------------------------
- -----------------------------------------------------
- -----------------------------------------------------
- -----------------------------------------------------
- -----------------------------------------------------
- -5(x6)----1(x6)----3(x4)-0(x16)----------------------
PM                         ...........................


Riff 10: - 01:54: - 01:57:
- -----------------------------------------------------------------
- -----------------------------------------------------------------
- -----------------------------------------------------------------
- ---------------------------------7---------------12\-------------
- -0-0-0-0-0-0-0-0-0-0-0-0-0-0-0-0-5---------------12\-----0-------
- -0-0-0-0-0-0-0-0-0-0-0-0-0-0-0-0-7---------------12\-----0-------
PM ...............................                         .


Riff 11, Guitar 1 & 2: - 01:57: - 02:10:
- -----------------------------------------------------------------
- -----------------------------------------------------------------
- -----------------------------------------------------------------
- -------------------------------------------------7---------------
- -0-0-0-------------------0-0-0---0-0-0-----------5---------------
- -0-0-0-------------------0-0-0---0-0-0-----------7---------------
PM .....................................
- -----------------------------------------------------------------
- -----------------------------------------------------------------
- -----------------------------------------------------------------
- ---------7/8\7---7-------7/12----11------11/14---12------11------
- -0-0-0---5/6\5---5-------5/10----9-------9-/12---10------9-------
- -0-0-0-----------------------------------------------------------
PM .....


- -------------------------------------------------17p13-----------
- ------------------------------------------------------15---------
- --------------------------------------------------------14h15\---
- -----------------------------------------------------------------
- -0-0-0-------------------0-0-0---0-0-0---0-0-0-------------------
- -0-0-0-------------------0-0-0---0-0-0---0-0-0-------------------
PM .............................................
- -----------------------------------------------------------------
- -----------------------------------------------------------------
- -----------------------------------------------------------------
- ---------7/8\7---7-------7/12----11------8-------7---------------
- -0-0-0---5/6\5---5-------5/10----9-------6-------5---------------
- -0-0-0-----------------------------------------------------------
PM .....


- -----------------------------------------------------------------
- -----------------------------------------------------------------
- -----------------------------------------------------------------
- -----------------7-------------------------------8---------------
- -0-0-0-----------5-------0-0-0---0-0-0-----------6---------------
- -0-0-0-----------7-------0-0-0---0-0-0-----------8---------------
PM .....                   .............
- -----------------------------------------------------------------
- -----------------------------------------------------------------
- -----------------------------------------------------------------
- -----------------------------------------------------------------
- -----------------------------------------------------------------
- -----------------------------------------------------------------


- -------------------------------------------------17p13-----------
- ------------------------------------------------------15---------
- --------------------------------------------------------14h15\---
- -----------------------------------------------------------------
- -0-0-0-------------------0-0-0---0-0-0---0-0-0-------------------
- -0-0-0-------------------0-0-0---0-0-0---0-0-0-------------------
PM .............................................
- -----------------------------------------------------------------
- -----------------------------------------------------------------
- -----------------------------------------------------------------
- ---------7/8\7---7-------7/12----11------8-------7---------------
- -0-0-0---5/6\5---5-------5/10----9-------6-------5---------------
- -0-0-0-----------------------------------------------------------
PM .....


Riff 7, Guitar 1 & 2: - 02:10: - 02:36: - x2:


Riff 12, Guitar 1 & 2: - 02:36: - 02:59:
- -----------------------------------------------------------------
- -15--------------13--------------10------------------------------
- -x---------------x---------------x-------------------------------
- -12--------------10--------------7-------------------------------
- -----------------------------------------------------------------
- -----------------------------------------------------------------
-
- -----------------------------------------------------------------
- -----------------------------------------------------------------
- -----------------------------------------------------------------
- -8---------------5---------------0-------------------------------
- -8---------------5---------------0-------------------------------
- -8---------------5---------------0-------------------------------


- -----------------------------------------------------------------
- -----------------------------------------------------------------
- -10--------------9---------------7-------------------------------
- -x---------------x---------------x-------------------------------
- -8---------------7---------------5-------------------------------
- -----------------------------------------------------------------
-
- -----------------------------------------------------------------
- -----------------------------------------------------------------
- -----------------------------------------------------------------
- -8---------------10----------------------------------------------
- -8---------------10------------------000-000---------000-000-----
- -8---------------10------------------000-000---------000-000-----
PM                                     .......................


- -----------------------------------------------------------------
- -----------------------------------------------------------------
- -----------------------------------------------------------------
- ---------------------\\\-------------0---------------------------
- ---------------------\\\-------------0---------------------------
- ---------------------\\\-------------0---------------------------
-
- -----------------------------------------------------------------
- -----------------------------------------------------------------
- -----------------------------------------------------------------
- -----------------------------------------------------------------
- -----000-000---------000-000---------000-000---------000-000-----
- -----000-000---------000-000---------000-000---------000-000-----
PM ...............................................................


- -------------------------------------
- -------------------------------------
- -------------------------------------
- ---------------------\\\-------------
- ---------------------\\\-------------
- ---------------------\\\-------------
-
- -------------------------------------
- -------------------------------------
- -------------------------------------
- -------------------------------------
- -----000-000---------000-000---------
- -----000-000---------000-000---------
PM ...................................


Riff 13: - 02:59: - 03:13:
- --------------------------------------------------------------------
- --------------------------------------------------------------------
- --------------------------------------------------------------------
- --------------------------------------------------------------------
- -----000-000---------000-000---------000-000---------000-000-3b:---
- -----000-000---------000-000---------000-000---------000-000------0-
PM ...........................................................

- --------------------------------------------------------------------
- --------------------------------------------------------------------
- --------------------------------------------------------------------
- --------------------------------------------------------------------
- -----000-000---------000-000---------000-000---------000-000-3b:---
- 3v:-000-000---------000-000---------000-000---------000-000------0-
PM ...........................................................

- -----------------
- -----------------
- -----------------
- -----------------
- -----000-000-----
- 3v:-000-000-----
PM ...........


Symbols:

PM... Palm Mute notes with (...) under them
AP... Alternate Pick notes with (...) under them
h     Hammer On
p     Pull Off
 :   Harmonic
/     Slide Up
\     Slide Down
x     Dead Note
b     Bend
hb    Hold Bend
pb    Pre-Bend
r     Release Bend
(x )  Play Notes x amount of times
~     Let Ring
\\\   Pick Slide Down
///   Pick Slide Up
/ 3 \ Notes are triplets (3 notes in the space of two)
w\    Whammy Bar Down
w/    Whammy Bar Up
wh    Whammy Bar Hold
T     Right Hand Tap
L     Left Hand Tap

Almost there ...

Sign in to get your own page with links to favourite songs and more. You are just one click away...

Login with Facebook Login with Google