Log in

One click and you are in

Login with Facebook Login with Google

Why sign up and log in

Guitar Tabs Explorer
Device bass tabs for You think you know

Bass tabs

  • Tuning: Drop A
  • Difficulty: Intermediate
Track 1 from Device - You Think you Know


Tuning - Drop A

Drums Plays First

             Intro
D |-------------------|---------------|-------------------|
A |-------------------|---------------|-------------------|
E |-------------------|---------------|-------------------|
A |--3-0-0-0-0-0-6-3--|--0-0-0-5-5-3--|--0-0-0-6-3--0--5--|

D |-------------------|---------------|-------------|-----------------------|
A |-------------------|---------------|-------------|-----------------------|
E |-------------------|---------------|-------------|-----------------------|
A |--3-0-0-0-0-0-6-3--|--0-0-0-5-5-3--|--3-3-3-3-3--|--x-3--1-1-1-1-x-x--1--|

             Verse - X2
D |-------------------|---------------|-----------------|
A |-------------------|---------------|-----------------| X2
E |-------------------|---------------|-----------------|
A |--3-0-0-0-0-0-6-3--|--0-0-0-5-5-3--|--0-0-0-6-3-0-5--|

D |-------------------|---------------|-------------|-----------------------|
A |-------------------|---------------|-------------|-----------------------|
E |-------------------|---------------|-------------|-----------------------|
A |--3-0-0-0-0-0-6-3--|--0-0-0-5-5-3--|--3-3-3-3-3--|--x-3--1-1-1-1-x-x--1--|

              Pre Chorus
D |---------|-------------|-------------|-------------|-------------|
A |---------|-------------|-------------|-------------|-------------|
E |---------|-------------|-------------|-------------|-------------|
A |--5-5-5--|--5-5-5-6-5--|--5-5-5-6-5--|--5-5-5-6-5--|--5-5-5-6-5--|

D |-------------|-------------|-------------|--------------------------|
A |-------------|-------------|-------------|--------------------------|
E |-------------|-------------|-------------|--------------------------|
A |--5-5-5-6-5--|--5-5-5-6-5--|--5-5-5-6-5--|--3-3-3-3-3-3-3-3-1-1-1-1-|

                 Chorus
D |------------------|------------|------------------|---------------------------|
A |------------------|------------|------------------|---------------------------| X3
E |--0-0-0-0--0-0-0--|--12-13-12--|--8-8-8-8--8-8-8--|--10-10-10-10-10-10-10-10--|
A |------------------|------------|------------------|---------------------------|

D |------------------|------------------|------------------|---------------------------|
A |------------------|------------------|------------------|---------------------------|
E |--5-5-5-5--0-0-0--|--12-12-12-13-13--|--8-8-8-8--8-8-8--|--10-10-10-10-10-10-10-10--|
A |------------------|------------------|------------------|---------------------------|

           Post Chorus
D |-------------------|---------------|-------------------|
A |-------------------|---------------|-------------------|
E |-------------------|---------------|-------------------|
A |--3-0-0-0-0-0-6-3--|--0-0-0-5-5-3--|--0-0-0-6-3--0--5--|

            Verse II
D |-------------------|---------------|-----------------|
A |-------------------|---------------|-----------------| X2
E |-------------------|---------------|-----------------|
A |--3-0-0-0-0-0-6-3--|--0-0-0-5-5-3--|--0-0-0-6-3-0-5--|

D |-------------------|---------------|-------------|-----------------------|
A |-------------------|---------------|-------------|-----------------------|
E |-------------------|---------------|-------------|-----------------------|
A |--3-0-0-0-0-0-6-3--|--0-0-0-5-5-3--|--3-3-3-3-3--|--x-3--1-1-1-1-x-x--1--|
              Pre Chorus
D |---------|-------------|-------------|-------------|---------------------------|
A |---------|-------------|-------------|-------------|---------------------------|
E |---------|-------------|-------------|-------------|---------------------------|
A |--5-5-5--|--5-5-5-6-5--|--5-5-5-6-5--|--5-5-5-6-5--|--3-3-3-3-3-3-3-3-1-1-1-1--|

                  Chorus II - X2
D |------------------|------------|------------------|---------------------------|
A |------------------|------------|------------------|---------------------------| X3
E |--0-0-0-0--0-0-0--|--12-13-12--|--8-8-8-8--8-8-8--|--10-10-10-10-10-10-10-10--|
A |------------------|------------|------------------|---------------------------|

D |------------------|------------------|------------------|---------------------------|
A |------------------|------------------|------------------|---------------------------|
E |--5-5-5-5--0-0-0--|--12-12-12-13-13--|--8-8-8-8--8-8-8--|--10-10-10-10-10-10-10-10--|
A |------------------|------------------|------------------|---------------------------|

      Bridge Lead In
D |-----------------------------|
A |-----------------------------|
E |-----------------------------|
A |--3-3-3-3-3-3-3-3--1-1--1-1--|

       Bridge - X2
D |---------------|----------------------|
A |---------------|----------------------|
E |--13-13-13-13--|--13-13-13-13-13--13--|
A |---------------|----------------------|

D |----------------------|----------------------|
A |----------------------|----------------------|
E |--5-5-5-5--5-5-5-5-5--|----------------------|
A |----------------------|--5-5-5-5--5-5-5-5-5--|

              Pre Chorus
D |-----------------------------|--------------------------|---------------------------|
A |-----------------------------|--------------------------|---------------------------|
E |-----------------------------|--------------------------|---------------------------|
A |--3-0-0--0-0-0-3-0-0--0-0-0--|--3-0-0--0-0-0-3-0-0-3-5--|--3-3-3-3-3-3-3-3-1-1-1-1--|

                Final Chorus - X2
D |------------------|------------|------------------|---------------------------|
A |------------------|------------|------------------|---------------------------| X3
E |--0-0-0-0--0-0-0--|--12-13-12--|--8-8-8-8--8-8-8--|--10-10-10-10-10-10-10-10--|
A |------------------|------------|------------------|---------------------------|

D |------------------|------------------|------------------|---------------------------|
A |------------------|------------------|------------------|---------------------------|
E |--5-5-5-5--0-0-0--|--12-12-12-13-13--|--8-8-8-8--8-8-8--|--10-10-10-10-10-10-10-10--|
A |------------------|------------------|------------------|---------------------------|

↓ Add and view comments below ↓

What do you think about this song and these tabs?

Add your comments, questions, rant or a thumbs up below.

Almost there ...

Sign in to get your own page with links to favourite songs and more. You are just one click away...

Login with Facebook Login with Google