Log in

One click and you are in

Login with Facebook Login with Google

Why sign up and log in

Guitar Tabs Explorer
DEUS bass tabs for Put the freaks up front

Bass tabs

Put The Freaks Up Front

-----
Bass
-----

Tab by Avi

No bass in the Intro, only from the verse on...
Verse -
  _________________________________
 /       play twice     \
G|----------|-------------|----------|----------|
D|----------|-------------|----------|----------|
A|-5-5-5...-|-5-5-7-7-8-8-|-1-1-1...-|----------|
E|----------|-------------|----------|-3-3-3...-|


Chorus -
G|----------|----------|
D|----------|----------|
A|-2-2-2...-|----------|
E|----------|-3-3-3...-|


Bridge -
G|----------|----------|
D|----------|----------|
A|----------|-5-5-5...-|
E|-2-2-2...-|----------|


Outro -
G|----------|----------|
D|----------|----------|
A|-9-9-9...-|-7-7-7...-|
E|----------|----------|
ⓘ Bass guitar tab for 'Put The Freaks Up Front' by DEUS, a rock band formed in 1989

Almost there ...

Sign in to get your own page with links to favourite songs and more. You are just one click away...

Login with Facebook Login with Google