Log in

One click and you are in

Login with Facebook Login with Google

Why sign up and log in

Guitar Tabs Explorer
DEUS tabs for Opening night

Guitar tabs with lyrics

Album: In A chord diagramA augmentedA Bar Under The Sea

Tabbed By Siti Hajar (Trippers_tm@hotmail.com)
Alright this is my second dEUS tab that I tabbed myself. Quite easy
actually. Listen along to the song and play it.
2 guitars can be used in this song. The first guitar plays Riff A chord diagramA augmentedA and Riff A chord diagramBB
throughout the whole song and the second one plays Riff A chord diagramC majorC and D.

Arrangement of song:

Riff A chord diagramA augmentedA

Riff A chord diagramBB

Riff A chord diagramC majorC

Riff A chord diagramD MajorD

Riff A chord diagramC majorC


Riff A:
e----------------------------------
B----------------------------------
G----------------------------------
D----------------------------------
A----------------------------------
E--3--3-3--3-3-3-3--3--3-3--3-3-3-3   This riff is played until the lines of
"so solemnly, I must confess..."


Riff B:
e------------------------------
B------------------------------
G------------------------------
D------------------------------
A--3-3-3----------3-3-3--------
E---------3-3-3-3-------3-3-3-3 This one is played until the lines "upon her
opening night.."

Riff C:
e---------------
B------8--------
G--7-9---9-7---7
D------------9--
A---------------
E--------------- Listen to the song while playing this which will be
followed by:


Riff D:
e----------------
B------8-10-8---8
G--7-9--------9--
D----------------
A----------------
E---------------- This is played three times and then continue playing Riff
A chord diagramC majorC towards the end of the song.

Good luck in playing it. I know it's 98% accurate.
Siti Hajar (Trippers_tm@hotmail.com)

www.Trippers.moonfruit.com
ⓘ Guitar tab for 'Opening Night' by DEUS, a rock band formed in 1989

Almost there ...

Sign in to get your own page with links to favourite songs and more. You are just one click away...

Login with Facebook Login with Google