Log in

One click and you are in

Login with Facebook Login with Google

Why sign up and log in

Guitar Tabs Explorer
DEUS bass tabs for Let s get lost

Bass tabs

Let’s Get Lost

-----
Bass
-----

tab by Avi & Nadja Weber
Intro -
G|----------|----------|----------|----------|------|------|------|
D|----------|----------|----------|----------|------|------|------|
A|-5-5-5...-|-8-8-8...-|----------|----------|------|------|------|
E|----------|----------|-8-8-8...-|-5-5-5...-|-6...-|-8...-|--10--|


Verse (main riff of the song) -
G|-------19----|
D|----19-------|
A|-17-------17-|
E|-------------|

about every 4 times he adds -
G|--19-----|
D|-----19--|
A|---------|
E|---------|


Bridge (“See u dancing...”) -
     __________________________________
    /       play twice      \
G|-----|-----|-----|------|-----|-----|-----|
D|-----|-----|-----|----5-|-----|-----|-----|
A|-17/-|--5--|--3--|------|--5--|--3--|-----|
E|-----|-----|-----|-3----|-----|-----|--3--|


Outro -
starts with a pull off like this...
G|-----------------------|
D|-----------------------|
A|-17/5-5-5-and so on...-|
E|-----------------------|

and then simply the intro over and over and over again :-)

simply AMZAING !!!

ⓘ Bass guitar tab for 'Let S Get Lost' by DEUS, a rock band formed in 1989

Almost there ...

Sign in to get your own page with links to favourite songs and more. You are just one click away...

Login with Facebook Login with Google