Log in

One click and you are in

Login with Facebook Login with Google

Why sign up and log in

Guitar Tabs Explorer
DEUS bass tabs for Instant street

Bass tabs

Instant Street

-----
Bass
-----

tab by Avi
Verse -
G|-------|---|---------------|------|------|------|
D|-------|---|---------------|------|------|------|
A|-10...-|-3-|-3-3-3-2-3-3-2-|-7...-|-5...-|-3...-|
E|-------|---|---------------|------|------|------|


Bridge -
G|------|---------------------|------|------|------|------|------|
D|------|--------3-3-5-5------|------|------|------|------|------|
A|-5...-|-3...-3---------5...-|-5...-|-3...-|-0...-|-8...-|-5...-|
E|------|---------------------|------|------|------|------|------|


Chorus -
G|-------|------|------|------|------|------|------|
D|-------|------|------|------|------|------|------|
A|-10...-|-7...-|-2...-|-2...-|-9...-|-0...-|-5...-|
E|-------|------|------|------|------|------|------|

G|-------|------|------|------|------|------|------|
D|-------|-9...-|-9...-|-9...-|------|------|------|
A|-10...-|------|------|------|-9...-|-7...-|-5...-|
E|-------|------|------|------|------|------|------|

Addition to 3rd verse -
G|------|------|------|------|-----|
D|------|------|------|------|-----|
A|-7...-|-5...-|-3...-|-7...-|--5--|
E|------|------|------|------|-----|

Solo -
G|-------|------|------|------|------|------|------|
D|-------|------|------|------|------|------|------|
A|-10...-|-7...-|-2...-|-2...-|-9...-|-0...-|-5...-|
E|-------|------|------|------|------|------|------|

G|-----------------|------9-----|------------|-------------|
D|----------9------|------------|------9-----|-------------|
A|-10-10-10---10-9-|-7-7----7-7-|------------|---5-5-6-6-7-|
E|-----------------|------------|-7-7----7-7-|-7-----------|

G|------11-----|-----------|------|
D|-------------|---7-------|------|
A|-9-9-----9-9-|-7---5-5-7-|-5...-|
E|-------------|-----------|------|

G|-7-7-|-7-7-7/11-11-11-|-11-11------|---------|-----------|
D|-----|----------------|-------10-9-|-9-9-8-9-|-5-5-5-5-4-|
A|-----|----------------|------------|---------|-----------|
E|-----|----------------|------------|---------|-----------|

G|-7-7-|-7-7-7/11-11-11-|-11-11------|---------|
D|-----|----------------|-------10-9-|-9-9-8-9-|
A|-----|----------------|------------|---------|
E|-----|----------------|------------|---------|

G|-------|------|------|------|------|------|-7...-|-7...-|-7...-|
D|-------|------|-9...-|-9...-|------|-7...-|------|------|------|
A|-10...-|-7...-|------|------|-9...-|------|------|------|------|
E|-------|------|------|------|------|------|------|------|------|

G|-4...-|-4...-|-4...-|------|------|-7...-|
D|------|------|------|-4...-|-7...-|------|
A|------|------|------|------|------|------|
E|------|------|------|------|------|------|

G|-7-7-|-7-7-7/11-11-11-|-11-11------|---------|-----------|
D|-----|----------------|-------10-9-|-9-9-8-9-|-5-5-5-5-4-|
A|-----|----------------|------------|---------|-----------|
E|-----|----------------|------------|---------|-----------|

G|-7-7-|-7-7-7/11-11-11-|-11-11------|---------|
D|-----|----------------|-------10-9-|-9-9-8-9-|
A|-----|----------------|------------|---------|
E|-----|----------------|------------|---------|

G|-------|------|------|------|------|------|-7...-|-7...-|
D|-------|------|-9...-|-9...-|------|-7...-|------|------|
A|-10...-|-7...-|------|------|-9...-|------|------|------|
E|-------|------|------|------|------|------|------|------|
...twice this

G|-7-7-|-7-7-7/11-11-11-|-11-11------|---------|-----------|
D|-----|----------------|-------10-9-|-9-9-8-9-|-5-5-5-5-4-|
A|-----|----------------|------------|---------|-----------|
E|-----|----------------|------------|---------|-----------|

G|-7-7-|-7-7-7/11-11-11-|-11-11------|---------|
D|-----|----------------|-------10-9-|-9-9-8-9-|
A|-----|----------------|------------|---------|
E|-----|----------------|------------|---------|

G|-------|------|------|------|------|------|-7...-|--7--|
D|-------|------|-9...-|-9...-|------|-7...-|------|-----|
A|-10...-|-7...-|------|------|-9...-|------|------|-----|
E|-------|------|------|------|------|------|------|-----|

THE END !
ⓘ Bass guitar tab for 'Instant Street' by DEUS, a rock band formed in 1989

Almost there ...

Sign in to get your own page with links to favourite songs and more. You are just one click away...

Login with Facebook Login with Google