Log in

One click and you are in

Login with Facebook Login with Google

Why sign up and log in

Guitar Tabs Explorer
Destroyer bass tabs for Kaputt

Bass tabs

Tuning: Standard (E A D G)



Intro/Main Riff into Verse 1:
0:00-1:31

G|---------------------------------------------------------------------------|
D|---------------------------------------------------------------------------|
A|---------------------------------------------------------------------------|
E|--0/5-5--5-5-5-5--5-5-5-5-5-5-5-5\0-0-0--0-0-0-0--0-0-0-0-0-0-0/-(repeat)--|

Bridge:
1:32-2:08 (at "sounds, smash hits")
G|---------------------------------------------------------------------------|
D|---------------------------------------------------------------------------|
A|---------------------------------------------------------------------------|
E|-5-5-5--5-5-5-5/4-4-4--4-4-4/5-5-5--5-5-5/7-7-7--7-7-7\5-5-5--5-5-5/7-7-7--|

G|---------------------------------------------------------------------------|
D|---------------------------------------------------------------------------|
A|---------------------------------------------------------------------------|
E|-7-7-7\5-5-5--(repeat 2x)--------------------------------------------------|


Sax Solo:
2:08-2:41

Main Riff, starting on 5th fret

G|---------------------------------------------------------------------------|
D|---------------------------------------------------------------------------|
A|---------------------------------------------------------------------------|
E|-5-5--5-5-5-5--5-5-5-5-5-5-5-5\0-0-0--0-0-0-0--0-0-0-0-0-0-0/--------------|


Verse 2:
2:42-3:18 ("at step out of your toga")
G|-----------------------------------------------------------------------------------|
D|-----------------------------------------------------------------------------------|
A|-----------------------------------------------------------------------------------|
E|-5-5-5--5-5-5-5/4-4-4--4-4-4/5-5-5--5-5-5--5-5-5--5-5-5-5-5-5-5\4-4-4-4-4-4/-5-5-5--|

Repeat, mostly 5th but slide down to 4th when you feel it


Interim:
3:18-3:32- repeat main riff starting on 5th

G|---------------------------------------------------------------------------|
D|---------------------------------------------------------------------------|
A|---------------------------------------------------------------------------|
E|-5-5--5-5-5-5--5-5-5-5-5-5-5-5\0-0-0--0-0-0-0--0-0-0-0-0-0-0/--------------|


Verse 3 - or we can call it "main riff 2":
3:32-5:05 ("in the sky, in your eye"
G|------------------------------------------------------------------------------------|
D|------------------------------------------------------------------------------------|
A|------------------------------------------------------------------------------------|
E|-5-5-5-5-5-5\4-4-4-4-4-4\-2-2-2-2-2-2\0-0-0-0-0/5-5-5-5-5-5\4-4-4-4-4-4/5-5-5-5-5---|

Repeat


Outro:

Rest, no bass from 5:05-end

-Ben

************************************

| /  Slide up
| \  Slide down

************************************

Almost there ...

Sign in to get your own page with links to favourite songs and more. You are just one click away...

Login with Facebook Login with Google