Log in

One click and you are in

Login with Facebook Login with Google

Why sign up and log in

Guitar Tabs Explorer
Destroy Boys bass tabs for Vixen

Bass tabs

Tuning: Standard (E A D G)


Verse 1:

Whisper your siren song...
G|--------------------------------------|
D|--------------------------------------|
A|5-5-5-5-0-0-0-0-2-2-2-2-1-1-1-1-------|
E|--------------------------------------|x2

I'm comming...
G|--------------------------------------|
D|--------------------------------------|
A|2-2-2-2-1-1-1-1-----------------------|
E|--------------------------------------|x6

Chorus:

I was the chosen sailor...
G|--------------------------------------|
D|--------------------------------------|
A|5-5-0-0-2-2-1-1-----------------------|
E|--------------------------------------|x2


Verse 2:

Forbidden...
G|--------------------------------------|
D|--------2-2-2-2-----------------------|
A|2-2-2-2-------------------------------|
E|--------------------------------------|x4


Chorus:

I was the chosen sailor...
G|--------------------------------------|
D|--------------------------------------|
A|5-5-0-0-2-2-1-1-----------------------|
E|--------------------------------------|x4


Outro:

G|--------------------------------------|
D|--------------------------------------|
A|5-5-0-0-2-2-1-1-----------------------|
E|--------------------------------------|x4

Almost there ...

Sign in to get your own page with links to favourite songs and more. You are just one click away...

Login with Facebook Login with Google