Log in

One click and you are in

Login with Facebook Login with Google

Why sign up and log in

Guitar Tabs Explorer
Destroy Boys bass tabs for Piedmont

Bass tabs

Tuning: Standard (E A D G)


Intro:

G|--------------------------------------|
D|--------------------------------------|
A|--------------------------------------|
E|-15-14-12-9---------------------------|

Verse 1:

Looks like I'm late...
G|--------------------------------------|
D|--------------------------------------|
A|--------------------------------------|
E|-15-14-12-9---------------------------|

Failed to notice...
G|--------------------------------------|
D|--------------------------------------|
A|--------------------------------------|
E|-15-14-12-9---------------------------|


Chorus:

Nostalgic for...

G|--------------------------------------|
D|--------------------------------------|
A|--------------------------------------|
E|15-15-15-15-14-14-14-14-12-12-12-12---|

G|--------------------------------------|
D|--------------------------------------|
A|--------------------------------------|
E|8-8-8-8-------------------------------|

G|--------------------------------------|
D|--------------------------------------|
A|--------------------------------------|
E|15-15-15-15-14-14-14-14-12-12-12-12---|

G|--------------------------------------|
D|--------------------------------------|
A|12-12-12-12---------------------------|
E|--------------------------------------|


G|--------------------------------------|
D|--------------------------------------|
A|--------------------------------------|
E|15-15-15-15-14-14-14-14-12-12-12-12---|

G|--------------------------------------|
D|--------------------------------------|
A|--------------------------------------|
E|8-8-8-8-------------------------------|


G|--------------------------------------|
D|--------------------------------------|
A|--------------------------------------|
E|15-15-15-15-14-14-14-14-12-12-12-12---|

G|--------------------------------------|
D|--------------------------------------|
A|12-12-12-12---------------------------|
E|--------------------------------------|


Verse 2:

Camouflage restricted...

G|--------------------------------------|
D|--------------------------------------|
A|--------------------------------------|
E|-15-14-12-9---------------------------|


Chorus:

Nostalgic for...

G|--------------------------------------|
D|--------------------------------------|
A|--------------------------------------|
E|15-15-15-15-14-14-14-14-12-12-12-12---|

G|--------------------------------------|
D|--------------------------------------|
A|--------------------------------------|
E|8-8-8-8-------------------------------|


G|--------------------------------------|
D|--------------------------------------|
A|--------------------------------------|
E|15-15-15-15-14-14-14-14-12-12-12-12---|

G|--------------------------------------|
D|--------------------------------------|
A|12-12-12-12---------------------------|
E|--------------------------------------|


G|--------------------------------------|
D|--------------------------------------|
A|--------------------------------------|
E|15-15-15-15-14-14-14-14-12-12-12-12---|

G|--------------------------------------|
D|--------------------------------------|
A|--------------------------------------|
E|8-8-8-8-------------------------------|


G|--------------------------------------|
D|--------------------------------------|
A|--------------------------------------|
E|15-15-15-15-14-14-14-14-12-12-12-12---|

G|--------------------------------------|
D|--------------------------------------|
A|12-12-12-12---------------------------|
E|--------------------------------------|


Outro:

G|--------------------------------------|
D|--------------------------------------|
A|--------------------------------------|
E|15-15-15-15-14-14-14-14-12-12-12-12---|

G|--------------------------------------|
D|--------------------------------------|
A|--------------------------------------|
E|8-8-8-8-------------------------------|


G|--------------------------------------|
D|--------------------------------------|
A|--------------------------------------|
E|15-15-15-15-14-14-14-14-12-12-12-12---|

G|--------------------------------------|
D|--------------------------------------|
A|12-12-12-12---------------------------|
E|--------------------------------------|


G|--------------------------------------|
D|--------------------------------------|
A|--------------------------------------|
E|15-15-15-15-14-14-14-14-12-12-12-12---|

G|--------------------------------------|
D|--------------------------------------|
A|--------------------------------------|
E|8-8-8-8-------------------------------|


G|--------------------------------------|
D|--------------------------------------|
A|--------------------------------------|
E|15-15-15-15-14-14-14-14-12-12-12-12---|

G|--------------------------------------|
D|--------------------------------------|
A|12-12-12-12---------------------------|
E|--------------------------------------|


G|--------------------------------------|
D|--------------------------------------|
A|--------------------------------------|
E|-15-14-12-9---------------------------|


G|--------------------------------------|
D|--------------------------------------|
A|----------12--------------------------|
E|-15-14-12-----------------------------|

Almost there ...

Sign in to get your own page with links to favourite songs and more. You are just one click away...

Login with Facebook Login with Google