Log in

One click and you are in

Login with Facebook Login with Google

Why sign up and log in

Guitar Tabs Explorer
Destroy Boys bass tabs for Methatonin

Bass tabs with lyrics

Tuning: Standard (E A D G)


Verse 1:

G|---------------------------------------------------------------------------|
D|---------------------------------------------------------------------------|  x4
A|---------------------------------------------------------------------------|
E|-1-1-1-1-1-1-1-1-1-1-1-6-3-4-4-4-4-4-4-4-4-8-8-8-8-6-3---------------------|
Chorus:

G|---------------------------------------------------------------------------|
D|---------------------------------------------------------------------------|  x2
A|---------------------------------------------------------------------------|
E|-5-6-5-10-6----------------------------------------------------------------|

G|---------------------------------------------------------------------------|
D|---------------------------------------------------------------------------|  x2
A|---------------------------------------------------------------------------|
E|-5-5-5-5-5-5-5-5-5-5-5-6-6-5-5-5-5-5-5-5-5-10-10-10-6-6--------------------|


Verse 2:
G|---------------------------------------------------------------------------|
D|---------------------------------------------------------------------------|  x4
A|---------------------------------------------------------------------------|
E|-1-1-1-1-1-1-1-1-1-1-1-6-3-4-4-4-4-4-4-4-4-8-8-8-8-6-3---------------------|


Chorus:
G|---------------------------------------------------------------------------|
D|---------------------------------------------------------------------------|  x2
A|---------------------------------------------------------------------------|
E|-5-6-5-10-6----------------------------------------------------------------|

G|---------------------------------------------------------------------------|
D|---------------------------------------------------------------------------|  x2
A|---------------------------------------------------------------------------|
E|-5-5-5-5-5-5-5-5-5-5-5-6-6-5-5-5-5-5-5-5-5-10-10-10-6-6--------------------|

Bridge:
G|---------------------------------------------------------------------------|
D|---------------------------------------------------------------------------|  x4
A|---------------------------------------------------------------------------|
E|-7-7-7-7-7-7-7-7-7-7-7-8-8-7-7-7-7-7-7-7-7-12-12-12-8-8--------------------|


Chorus:
G|---------------------------------------------------------------------------|
D|---------------------------------------------------------------------------|  x2
A|---------------------------------------------------------------------------|
E|-5-5-5-5-5-5-5-5-5-5-5-6-6-5-5-5-5-5-5-5-5-10-10-10-6-6--------------------|


Outro:
G|---------------------------------------------------------------------------|
D|---------------------------------------------------------------------------|
A|---------------------------------------------------------------------------|
E|-5-5-5-5-5-5-5-5-5-5-5-6-6-5-5-5-5-5-5-5-5-10-10-10-6-6--------------------|

G|---------------------------------------------------------------------------|
D|---------------------------------------------------------------------------|
A|---------------------------------------------------------------------------|
E|-5-5-5-5-5-5-5-5-5-5-5-6-6-5-5-5-5-5-5-5-5-10-10-10-6-6-5------------------|

************************************


Verse 1:

Who's the speed dial on your phone?

High and dry left on my throne

Are you a wolf that's lone?

I want and I need to know

The hairs on my neck stand up to salute

In my veins going straight to the roots

Scars are gone, but bruises remain

I can forgive your past and clean your stains


Chorus:

Redeem

Can you finally show that you've come clean?

No longer above me

Huh, honey

Redeem

Can you finally show that you've come clean?

No longer above me

Huh, honey


Verse 2:

Heavy chest gets filled with bricks

The way you act makes me really sick

Old habits die hard, can't be kicked

Tired of monopoly, tired of these tricks

I used to ask people to listen

When it's my ass they should be kissing

Blind enough to not see what you're missing

You should be begging me


Chorus:

Redeem

Can you finally show that you've come clean?

No longer above me

Huh, honey

Redeem

Can you finally show that you've come clean?

No longer above me

Huh, honey


Redeem

Can you finally show that you've come clean?

No longer above me

Huh, honey

Redeem

Can you finally show that you've come clean?

No longer above me

Huh, honey


Redeem

Can you finally show that you've come clean?

No longer above me

Huh, honey

Redeem, come clean

Redeem, come clean

Redeem, come clean

Come clean

Almost there ...

Sign in to get your own page with links to favourite songs and more. You are just one click away...

Login with Facebook Login with Google