Log in

One click and you are in

Login with Facebook Login with Google

Why sign up and log in

Guitar Tabs Explorer
Destroy Boys guitar tabs for I threw glass in my friends eyes and now im on probation

I Threw Glass In My Friends Eyes And Now I'm On Probation tab by Destroy Boys

Destroy Boys guitar tabs for I threw glass in my friends eyes and now im on probation

Guitar tabs

Tuning: Standard (E A D G B E)

Strumming Pattern- DDUUDU

Intro:

e|---------------------------------------------------------------------------|
B|---------------------------------------------------------------------------|
G|---------------------------------------------------------------------------|
D|----7-----3----10----14------(x2)------------------------------------------|
A|----7-----3----10----14----------------------------------------------------|
E|----5-----1----8-----12----------------------------------------------------|


Verse 1:"you're ruining my life day by day.........and I don't wanna do that"

e|---------------------------------------------------------------------------|
B|---------------------------------------------------------------------------|
G|---------------------------------------------------------------------------|
D|----7-----3-----10-------(x4)----------------------------------------------|
A|----7-----3-----10---------------------------------------------------------|
E|----5-----1-----8----------------------------------------------------------|


Chorus:"never invite me over ever again..... i really wanna hang out with you"
(only strum first two power chords once.)

e|---------------------------------------------------------------------------|
B|---------------------------------------------------------------------------|
G|---------------------------------------------------------------------------|
D|----3----14-----------7----------------------------------------------------|
A|----3----14-----------7----------------------------------------------------|
E|----1----12-----------5----------------------------------------------------|
  "ooh ooh ooh" part.
e|---------------------------------------------------------------------------|
B|---------------------------------------------------------------------------|
G|---------------------------------------------------------------------------|
D|----3----14-----------7----------------------------------------------------|
A|----3----14-----------7----------------------------------------------------|
E|----1----12-----------5----------------------------------------------------|


those are incorperated exactly the same for the rest of the song, the verses line up with the rest of the
verses along with the choruses. best of luck.

↓ Add and view comments below ↓

What do you think about this song and these tabs?

Add your comments, questions, rant or a thumbs up below.

Almost there ...

Sign in to get your own page with links to favourite songs and more. You are just one click away...

Login with Facebook Login with Google