Log in

One click and you are in

Login with Facebook Login with Google

Why sign up and log in

Guitar Tabs Explorer
Destroy Boys bass tabs for Honey im home

Bass tabs

Tuning: Standard (E A D G)


Intro:
G|-----------------------------------------------------------------|
D|-----------------------------------------------------------------|
A|---------------------7-7-5-5-7-7---------------------4-4-2-2-4-4-|
E|-5-5-5-5-5-5-5-5-5-5-------------2-2-2-2-2-2-2-2-2-2-------------|

G|-----------------------------------------------------------------|
D|-----------------------------------------------------------------|
A|---------------------7-7-5-5-7-7---------------------4-4-5-5-2-2-|
E|-5-5-5-5-5-5-5-5-5-5-------------2-2-2-2-2-2-2-2-2-2-------------|
Verse 1:
G|-----------------------------------------------------------------|
D|-----------------------------------------------------------------|
A|---------------------7-7-5-5-4-4---------------------4-4-2-2-4-4-|
E|-5-5-5-5-5-5-5-5-5-5-------------2-2-2-2-2-2-2-2-2-2-------------|

G|-----------------------------------------------------------------|
D|-----------------------------------------------------------------|
A|---------------------7-7-5-5-4-4---------------------4-4-5-5-2-2-|
E|-5-5-5-5-5-5-5-5-5-5-------------2-2-2-2-2-2-2-2-2-2-------------|

G|-----------------------------------------------------------------|
D|-----------------------------------------------------------------|
A|-----7-7-5-5-4-4-----7-7-5-5-4-4-----4-4-5-5-2-2-----4-4-5-5-2-2-|
E|-5-5-------------5-5-------------2-2-------------2-2-------------|

G|-----------------------------------------------------|
D|-----------------------------------------------------|
A|-----7-7-5-5-4-4-----7-7-5-5-4-4---------------------|
E|-5-5-------------5-5-------------2-2-2-2-2-2-2-2-2-2-|

Chorus:
G|---------------------------------------------|
D|------------------------------7-6------------|
A|-----------------------5--5-5-----4--4-4-4-4-|
E|-2--2-2-2-4-5--5-5-5-5-----------------------|

G|---------------------------------------------|
D|---------------------------------------------|
A|-----------------------7--7-7-7-7-5--5-5-5-5-| Repeat chorus x1
E|-2--2-2-2-4-5--5-5-5-5-----------------------|


Verse 2:
G|-----------------------------------------------------------------|
D|-----------------------------------------------------------------|
A|---------------------7-7-5-5-4-4---------------------4-4-2-2-4-4-|
E|-5-5-5-5-5-5-5-5-5-5-------------2-2-2-2-2-2-2-2-2-2-------------|

G|-----------------------------------------------------------------|
D|-----------------------------------------------------------------|
A|---------------------7-7-5-5-4-4---------------------4-4-5-5-2-2-|
E|-5-5-5-5-5-5-5-5-5-5-------------2-2-2-2-2-2-2-2-2-2-------------|

G|-----------------------------------------------------------------|
D|-----------------------------------------------------------------|
A|-----7-7-5-5-4-4-----7-7-5-5-4-4-----4-4-5-5-2-2-----4-4-5-5-2-2-|
E|-5-5-------------5-5-------------2-2-------------2-2-------------|

G|-----------------------------------------------------|
D|-----------------------------------------------------|
A|-----7-7-5-5-4-4-----7-7-5-5-4-4---------------------|
E|-5-5-------------5-5-------------2-2-2-2-2-2-2-2-2-2-|


Chorus:
G|---------------------------------------------|
D|------------------------------7-6------------|
A|-----------------------5--5-5-----4--4-4-4-4-|
E|-2--2-2-2-4-5--5-5-5-5-----------------------|

G|---------------------------------------------|
D|---------------------------------------------|
A|-----------------------7--7-7-7-7-5--5-5-5-5-| Repeat chorus x1
E|-2--2-2-2-4-5--5-5-5-5-----------------------|


Bridge:
G|-----------------------------------------------------------------|
D|-----------------------------------------------------------------|
A|-----------------5-5-5-5-4-4-4-4-----------------2-2-2-2-2-2-2-2-| x6
E|-5-5-5-5-5-5-5-5-----------------2-2-2-2-2-2-2-2-----------------|


Chorus:
G|---------------------------------------------|
D|------------------------------7-6------------|
A|-----------------------5--5-5-----4--4-4-4-4-|
E|-2--2-2-2-4-5--5-5-5-5-----------------------|

G|---------------------------------------------|
D|---------------------------------------------|
A|-----------------------7--7-7-7-7-5--5-5-5-5-| Repeat chorus x1
E|-2--2-2-2-4-5--5-5-5-5-----------------------|


Outro:
G|---------------------------------------------|
D|------------------------------7-6------------|
A|-----------------------5--5-5-----4--4-4-4-4-|
E|-2--2-2-2-4-5--5-5-5-5-----------------------|

G|---------------------------------------------|
D|---------------------------------------------|
A|-----------------------7--7-7-7-7-5--5-5-5-5-| Repeat chorus riff x2
E|-2--2-2-2-4-5--5-5-5-5-----------------------|

G|---|
D|---|
A|---|
E|-2-|

Almost there ...

Sign in to get your own page with links to favourite songs and more. You are just one click away...

Login with Facebook Login with Google