Log in

One click and you are in

Login with Facebook Login with Google

Why sign up and log in

Guitar Tabs Explorer
Destroy Boys bass tabs for Gold medal

Bass tabs

Tuning: Standard (E A D G)


Intro:

G|--------------------------------------|
D|--------------------------------------|
A|----------------8-8-8-11--------------|
E|4-4-4-4-8-8-8-8----------8-8-8-8------|x2


Verse 1:
Easily comes the glamour

G|--------------------------------------|
D|--------------------------------------|
A|----------------8-8-8-11--------------|
E|4-4-4-4-8-8-8-8----------8-8-8-8------|x2


G|--------------------------------------|
D|--------------------------------------|
A|----------------8-8-8-8---------------|
E|4-4-4-4-8-8-8-8----------11-11--8-8---|x4


Chorus:
Do you know who I am
G|--------------------------------------|
D|--------------------------------------|
A|------------------4-4-4-4-8-8-8-8-----|
E|--1-1-1-1-4-4-4-4---------------------|

In this leopard jacket
G|--------------------------------------|
D|--------------------------------------|
A|------------------4-4-4-4-4-4-4-4-----|
E|--1-1-1-1-4-4-4-4---------------------|

Can you see my regrets
G|--------------------------------------|
D|--------------------------------------|
A|------------------4-4-4-4-8-8-8-8-----|
E|--1-1-1-1-4-4-4-4---------------------|

In this leopard jacket
G|--------------------------------------|
D|--------------------------------------|
A|------------------4-4-4-4-4-4-4-4-----|
E|--1-1-1-1-4-4-4-4---------------------|


Verse 2:
Do you recognize my face?
G|--------------------------------------|
D|--------------------------------------|
A|----------------8-8-8-11--------------|
E|4-4-4-4-8-8-8-8----------8-8-8-8------|x4


G|--------------------------------------|
D|--------------------------------------|
A|----------------8-8-8-8---------------|
E|4-4-4-4-8-8-8-8----------11-11--8-8---|x4


Chorus:
Do you know who I am
G|--------------------------------------|
D|--------------------------------------|
A|------------------4-4-4-4-8-8-8-8-----|
E|--1-1-1-1-4-4-4-4---------------------|

In this leopard jacket
G|--------------------------------------|
D|--------------------------------------|
A|------------------4-4-4-4-4-4-4-4-----|
E|--1-1-1-1-4-4-4-4---------------------|

Can you see my regrets
G|--------------------------------------|
D|--------------------------------------|
A|------------------4-4-4-4-8-8-8-8-----|
E|--1-1-1-1-4-4-4-4---------------------|

In this leopard jacket
G|--------------------------------------|
D|--------------------------------------|
A|------------------4-4-4-4-4-4-4-4-----|
E|--1-1-1-1-4-4-4-4---------------------|



Bridge:
I'm not running away
G|--------------------------------------|
D|--------------------------------------|
A|----------------8-8-8-8-11-11-11-11---|
E|4-4-4-4-8-8-8-8-----------------------|x4


Chorus:


Do you know who I am
G|--------------------------------------|
D|--------------------------------------|
A|------------------4-4-4-4-8-8-8-8-----|
E|--1-1-1-1-4-4-4-4---------------------|

In this leopard jacket
G|--------------------------------------|
D|--------------------------------------|
A|------------------4-4-4-4-4-4-4-4-----|
E|--1-1-1-1-4-4-4-4---------------------|

Can you see my regrets
G|--------------------------------------|
D|--------------------------------------|
A|------------------4-4-4-4-8-8-8-8-----|
E|--1-1-1-1-4-4-4-4---------------------|

In this leopard jacket
G|--------------------------------------|
D|--------------------------------------|
A|------------------4-4-4-4-4-4-4-4-----|
E|--1-1-1-1-4-4-4-4---------------------|


Outro:


In this leopard jacket
G|--------------------------------------|
D|--------------------------------------|
A|----8---------------------------------|
E|4-1-----------------------------------|

Almost there ...

Sign in to get your own page with links to favourite songs and more. You are just one click away...

Login with Facebook Login with Google