Log in

One click and you are in

Login with Facebook Login with Google

Why sign up and log in

Guitar Tabs Explorer
Destroy Boys bass tabs for American river

Bass tabs

Tuning: Standard (E A D G)


Intro:

G|--------------------------------|
D|---------6----------------------|
A|-6-6-6-9--9-6-------------------|  x3
E|--------------9-6-6-6-9-6-6-6-6-|

G|--------------------------------------|
D|---------6----------------------------|
A|-6-6-6-9---9-6---13-16-13-16-13-16-13-|
E|---------------9----------------------|

G|------------------------------------------------------------------|
D|---------6--------------------------------------------------------|
A|-6-6-6-9---9-6----------------------------------------------------|
E|---------------9-6-6-6-9-6-6-6-6-7-7-7-7-7-7-7-7-10-10-10-6-6-6-6-|

G|------------------------------------------------------------------|
D|------------------------------------------------------------------|
A|-6-6-6-6-6-6-6-6--------------------------------------------------|
E|-----------------6-6-6-6-6-6-6-6-7-7-7-7-7-7-7-7-10-10-10-6-6-6-6-|


Verse 1:

G|--------------------------------|
D|---------6----------------------|
A|-6-6-6-9--9-6-------------------|  x3
E|--------------9-6-6-6-9-6-6-6-6-|

G|--------------------------------------|
D|---------6----------------------------|
A|-6-6-6-9---9-6---13-16-13-16-13-16-13-|
E|---------------9----------------------|

Chorus:

G|------------------------------------------------------------------|
D|------------------------------------------------------------------|  x2
A|-6-6-6-6-6-6-6-6--------------------------------------------------|
E|-----------------6-6-6-6-6-6-6-6-7-7-7-7-7-7-7-7-10-10-10-6-6-6-6-|

G|---------------------------------|
D|---------------------------------|  x4
A|-6-6-6-6-6-6---------------------|
E|-------------5-5-6-6-6-6-6-6-6-6-|

G|--------------------------------|
D|---------6----------------------|
A|-6-6-6-9--9-6-------------------|  x3
E|--------------9-6-6-6-9-6-6-6-6-|

G|--------------------------------------|
D|---------6----------------------------|
A|-6-6-6-9---9-6---13-16-13-16-13-16-13-|
E|---------------9----------------------|


Verse 2:

G|--------------------------------|
D|---------6----------------------|
A|-6-6-6-9--9-6-------------------|  x3
E|--------------9-6-6-6-9-6-6-6-6-|

G|--------------------------------------|
D|---------6----------------------------|
A|-6-6-6-9---9-6---13-16-13-16-13-16-13-|
E|---------------9----------------------|


Chorus:

G|------------------------------------------------------------------|
D|------------------------------------------------------------------|  x2
A|-6-6-6-6-6-6-6-6--------------------------------------------------|
E|-----------------6-6-6-6-6-6-6-6-7-7-7-7-7-7-7-7-10-10-10-6-6-6-6-|

G|---------------------------------|
D|---------------------------------|  x4
A|-6-6-6-6-6-6---------------------|
E|-------------5-5-6-6-6-6-6-6-6-6-|


Bridge:

G|-----------|
D|-----------|  x4
A|-----------|
E|-9-4-5-8-4-|

G|---------------------------------------------------------------------------|
D|---------------------------------------------------------------------------|
A|-6-------------------------------------------------------------------------|
E|---------------------------------------------------------------------------|


Chorus:

G|--------------------------------|
D|---------6----------------------|
A|-6-6-6-9--9-6-------------------|  x3
E|--------------9-6-6-6-9-6-6-6-6-|

G|-------------13-------------------------------|
D|-13-13-13-16----16 13-------------------------|  x3
A|----------------------16-13 13-13 16-13-13-13-|
E|----------------------------------------------|


Outro:

G|---------------------------------------------------------------------------|
D|---------------------------------------------------------------------------| (still working on this part
A|---------------------------------------------------------------------------|  hope you enjoy!!)
E|---------------------------------------------------------------------------|

G|---------------------------------------------------------------------------|
D|---------------------------------------------------------------------------|
A|-6-6-----------------------------------------------------------------------|
E|---------------------------------------------------------------------------|

************************************

Almost there ...

Sign in to get your own page with links to favourite songs and more. You are just one click away...

Login with Facebook Login with Google