Log in

One click and you are in

Login with Facebook Login with Google

Why sign up and log in

Guitar Tabs Explorer
Descendents chords for The iceman cometh

Guitar chords

Album:           ALL

Please send corrections to mcguirk@indirect.com.

-----------------------------------------------------------------
-----------------------------------------------------------------
-----------------------------------------------------------------
------4-5-2-4-----4-2---------4-5-2-4-----4-2--------------------
----4-----------4-----5-4---4-----------4-----5-4----------------
--2-----------2-----------2-----------2--------------------------

-----------------------------------------------------------------
-----------------------------------------------------------------
------6-7-4-6-----6-4----------11-12-9-11------11-9--------------
----6-----------6-----7-6---11--------------11------12-11--------
--4-----------4-----------9---------------9----------------------
-----------------------------------------------------------------
He's not alive, he can't breathe, stone ....

-----------------------------------------------------------------
-----------------------------------------------------------------
------5-6-3-5-----5-3---------5-6-3-5-----5-3--------------------
----5-----------5-----6-5---5-----------5-----6-5----------------
--3-----------3-----------3-----------3--------------------------
-----------------------------------------------------------------
Never feels anger or pain, what's left ....

-----------------------------------------------------------------
-----------------------------------------------------------------
------------------------------6-7-4-6-------11-12-9-11-----------
------4-5-2-4-----4-2-------6------------11----------------------
----4-----------4-----5-4-4------------9-------------------------
--2-----------2--------------------------------------------------
brain...........................

-----------------------------------------------------------------
-----------------------------------------------------------------
-----------------------------------------------------------------
------------------------------------------------------2----------
--2-3-6------3-2-----0-0-2----0-3-3---6---3-3---6-----2----------
------------------------------------------------------0----------
He is part of our ...

-----------------------------------------------------------------
-----------------------------------------------------------------
--------------------------------------------2--------------------
--------------------------------------------2---6---4------------
--2-3-6------3-2-----0-0-2----0-4-5-4-2-4-2-0---6---4------------
------------------------------------------------4---2------------
It's too late to save this child....

-----------------------------------------------------------------
-----------------------------------------------------------------
-----------------------------------------------------------------
----4---4------4---4------5-5---5-5---5-5-4----------------------
----4---4------4---4------5-5---5-5---5-5-4----------------------
--0-2-0-2----0-2-0-2----0-3-3-0-3-3-0-3-3-2----------------------
The iceman, the iceman...  COMETH!

Born without a hug, or an ounc....

ⓘ Guitar chords for 'The Iceman Cometh' by Descendents, a punk rock band formed in 1978 from Manhattan Beach, USA

Almost there ...

Sign in to get your own page with links to favourite songs and more. You are just one click away...

Login with Facebook Login with Google