Log in

One click and you are in

Login with Facebook Login with Google

Why sign up and log in

Guitar Tabs Explorer
Descendents bass tabs for Statue of liberty

Bass tabs

Intro:

G|-------|
D|7-7-7-7|
A|-------|
E|-------|
Verse 1:

G|---------------|--------------|---------------|--------------|
D|---------------|---------5----|---------------|---------5----|
A|-5--5--7--7-7-7|-8--8--7---8-7|-5--5--7--7-7-7|-8-8-8-7---8-7|
E|---------------|--------------|---------------|--------------|

G|---------------|---------------|---------------|--------------7|
D|---------------|---------------|---------------|----------7-7--|
A|-5--5--7--7-7-7|8--8--7--7-7-7-|-5--5--7--7-7-7|-8--8--7-------|
E|---------------|---------------|---------------|---------------|

G|---------------|--------------|---------------|--------------|
D|---------------|---------5----|---------------|---------5----|
A|-5--5--7--7-7-7|-8--8--7---8-7|-5--5--7--7-7-7|-8-8-8-7---8-7|
E|---------------|--------------|---------------|--------------|

G|---------------|--------------|---------------|-------------|
D|---------------|---------5----|---------------|-------------|
A|-5--5--7--7-7-7|8-8-8--7---8-7|-5--5--7--7-7-7|8-8--7--7-7-7|
E|---------------|--------------|---------------|-------------|

G|---------------|------------7-|-----------------|-------------|
D|---------------|--------7-7---|-----------------|-------------|
A|-5--5--7--7-7-7|8--8--7-------|-5--5--7--7-7-7--|8-8--7--7-7-7|
E|---------------|--------------|-----------------|-------------|


Chorus:

G|------------|------------|-------|-------|-------------------|-------13-13------------|
D|------------|------------|-------|-------|------9-9------9-9/|-12-12-------15-15-12-12|
A|-10-10-10-10|-10-10-10-10|8-8-8-8|8-8-8-8|-7-7-------7-7-----|------------------------|
E|------------|------------|-------|-------|-------------------|------------------------|

G|------------|------------|-------|-------|----------------|----------------|
D|------------|------------|-------|-------|----------------|----------------|
A|-10-10-10-10|-10-10-10-10|8-8-8-8|8-8-8-8|7-7-7-7---------|7-7-7-7------7-7|
E|------------|------------|-------|-------|---------7-7-7-7|---------7-7----|

G|------------|------------|-------|-------|----------------|---------------|
D|------------|------------|-------|-------|---------9-9-9-9|--------9-9-7-7|
A|-10-10-10-10|-10-10-10-10|8-8-8-8|8-8-8-8|7-7-7-7---------|7-7-7-7--------|
E|------------|------------|-------|-------|----------------|---------------|

G|------------|------------|-------|-------|---------------|----------|
D|------------|----12-10---|-------|--7-5--|---------------|----------|
A|-10-10-10-10|-10-------12|8-8-8-8|8-----8|-5--5--5--5-5-5|-5-5-5/10~|
E|------------|------------|-------|-------|---------------|----------|

Pre-Verse:

G|-----------|--------|-------------|--------|-----------|--------|-----------|---------|
D|-----------|--------|-------------|--------|-----------|--------|-----------|---------|
A|7--7--7-7-7|7-7-7/10|-7--7--7-7--7|7-7-7/10|7--7--7-7-7|7-7-7/10|7--7--7-7-7|-7-7-7/10|
E|-----------|--------|-------------|--------|-----------|--------|-----------|---------|

G|------------|--------|
D|------------|-7-7-7-7|
A|-7----------|--------|
E|------------|--------|



Verse 2 :

G|---------------|-------------|---------------|----------------|
D|---------------|--------5----|---------------|----------------|
A|-5--5--7--7-7-7|8--8--7---8-7|-5--5--7--7-7-7|-8-8-8-7--7--8-7|
E|---------------|-------------|---------------|----------------|

G|---------------|--------------|---------------|-------------7|
D|---------------|--------------|---------------|---------7-7--|
A|-5--5--7--7-7-7|8--8--7--7-8-7|-5--5--7--7-7-7|-8--8--7------|
E|---------------|--------------|---------------|--------------|

G|---------------|--------------|---------------|--------------|
D|---------------|--------------|---------------|--------------|
A|-5--5--7--7-7-7|8--8--7--7-8-7|-5--5--7--7-7-7|8--8--7--7-8-7|
E|---------------|--------------|---------------|--------------|

G|---------------|--------------|---------------|--------------|
D|---------------|--------------|---------------|---------5----|
A|-5--5--7--7-7-7|8--8--7--7-8-7|-5--5--7--7-7-7|-8-8-8-7---8-7|
E|---------------|--------------|---------------|--------------|


G|---------------|-------------7|-----------------|-------------|
D|---------------|---------7-7--|-----------------|-------------|
A|-5--5--7--7-7-7|8--8--7-------|-5--5--7--7-7-7--|8-8--7--7-7-7|
E|---------------|--------------|-----------------|-------------|


Chorus:

G|------------|------------|-------|-------|-------------------|-------13-13------------|
D|------------|------------|-------|-------|------9-9------9-9/|-12-12-------15-15-12-12|
A|-10-10-10-10|-10-10-10-10|8-8-8-8|8-8-8-8|-7-7-------7-7-----|------------------------|
E|------------|------------|-------|-------|-------------------|------------------------|

G|------------|------------|-------|-------|----------------|----------------|
D|------------|------------|-------|-------|----------------|----------------|
A|-10-10-10-10|-10-10-10-10|8-8-8-8|8-8-8-8|7-7-7-7---------|7-7-7-7------7-7|
E|------------|------------|-------|-------|---------7-7-7-7|---------7-7----|

G|------------|------------|-------|-------|----------------|---------------|
D|------------|------------|-------|-------|---------9-9-9-9|--------9-9-7-7|
A|-10-10-10-10|-10-10-10-10|8-8-8-8|8-8-8-8|7-7-7-7---------|7-7-7-7--------|
E|------------|------------|-------|-------|----------------|---------------|

G|------------|------------|-------|-------|---------------|----------|
D|------------|----12-10---|-------|--7-5--|---------------|----------|
A|-10-10-10-10|-10-------12|8-8-8-8|8-----8|-5--5--5--5-5-5|-5-5-5/10~|
E|------------|------------|-------|-------|---------------|----------|

Pre-Ending:

G|-----------|--------|-------------|--------|-----------|--------|-----------|---------|
D|-----------|--------|-------------|--------|-----------|--------|-----------|---------|
A|7--7--7-7-7|7-7-7/10|-7--7--7-7--7|7-7-7/10|7--7--7-7-7|7-7-7/10|7--7--7-7-7|-7-7-7/10|
E|-----------|--------|-------------|--------|-----------|--------|-----------|---------|


Ending:

G|------------|-9-------|
D|------------|-9-------|
A|-7----------|-7-------|
E|------------|---------|

Almost there ...

Sign in to get your own page with links to favourite songs and more. You are just one click away...

Login with Facebook Login with Google