GuitarTabsExplorer icon
GuitarTabsExplorer icon

Log in

Songbook

  • Log in to add and see bookmarks

Last visited songs

    No songs visited yet...

Man And Wife The Latter by Desaparecidos

Tabs

Band: Desaparecidos
Title: Man and wife, the latter (damaged goods)
Album: Read Music / Speak Spanish
Tabbed by: David Biddle ([email protected])

Intro
|----------------------------------------------------------------|
|----------------------------------------------------------------|
|----------------------------------------------------------------|
|---77777-8888-7777-5555-3333--333-222-000-----33-33-3-55-55-5---| x1
|---55555----------------------------------333-------------------|
|----------------------------------------------------------------|

|------------------xxx--------------xxx------------6-5-------6-5-------6-5-|
|---------6-8-6----xxx-------6-8-6\-xxx--------6-8-------------------------|
|---5h7p5-------5\-xxx-5h7p5--------xxx--5h7p5---------5h7p5-----5h7p5-----|
x2
|--------------------------------------------------------------------------|
|--------------------------------------------------------------------------|
|--------------------------------------------------------------------------|

Verses
Rhythm Guitar
|-------|
|-------| the beginning of every verse has a fuzz laden Chord diagramFF chord
|-------|
|---3---|
|---3---|
|---1---|

Lead Guitar
|---55555555-6666-5555-3333-1111-------------------------------------|
|--------------------------------5555-3333-1111/33-66-66-6-88-88-8---|
|--------------------------------------------------------------------|
|--------------------------------------------------------------------|
|--------------------------------------------------------------------|
|--------------------------------------------------------------------|

Bridge
|-------0-1-0-1-1/3----| Lead Guitar
|----------------------|
|----------------------|
|---3~--2-3-2-3-3/5~---|
|---3~--2-3-2-3-3/5~---|
|---1~--0-1-0-1-1/3~---| Rhythm Guitar

|-------0-1-0-1-1/3---------------------------------------------
|---------------------------------------------------------------
|-------------------------------77777777-55555555-333333333333--
|---3~--2-3-2-3-3/5~--5555-7777-77777777-55555555-333333333333--
|---3~--2-3-2-3-3/5~--5555-7777-55555555-33333333-111111111111--
|---1~--0-1-0-1-1/3~--3333-5555---------------------------------

|----------------------------------------12b-------------------------
|--------------------------------------------13----------------------
|---55555555-77777--9-9b10p9-5--55555--9---------77777--9-9b10p9-5---
|---55555555-77777--------------55555------------77777---------------
|---33333333-55555--------------33333------------55555---------------
|--------------------------------------------------------------------

|-----------------------------------------|
|-----------------------------------------|
|---3333-5555-7777-9999----------3--------|
|---3333-5555-7777-9999-3~------2-----3~--|
|---1111-3333-5555-7777-3~---1h3------3~--|
|-----------------------1~------------1~--|

Outro
Lead Guitar
|------------------xxx--------------xxx------------6-5-------6-5-------6-5-|
|---------6-8-6----xxx-------6-8-6\-xxx--------6-8-------------------------|
|---5h7p5-------5\-xxx-5h7p5--------xxx--5h7p5---------5h7p5-----5h7p5-----|
|--------------------------------------------------------------------------|
|--------------------------------------------------------------------------|
|--------------------------------------------------------------------------|

|------------------xxx--------------xxx------------6-5-------6-5-------6-5-----|

|---------6-8-6----xxx-------6-8-6\-xxx--------6-8-----------------------------|

|---5h7p5-------5\-xxx-5h7p5--------xxx--5h7p5---------5h7p5-----5h7p5-----5~--|

|------------------------------------------------------------------------------|

|------------------------------------------------------------------------------|

|------------------------------------------------------------------------------|

Rhythm Guitar
|-----------------------|
|-----------------------|
|-----2---2---2---2-----|
|----3---3---3---3--3~--|
|---1---3---1---3---3~--|
|-------------------1~--|


________________________________________________________________________________

Other versions of Man And Wife The Latter

Alternative guitar chords and tabs for Man And Wife The Latter by Desaparecidos

VersionType
Man and wife the latter damaged goodsTabs

[ Privacy | About us ]

Welcome to the guitar community

Why join and log in?
- Get songbook with favourite songs
- Get custom made front page
- Submit chords and tabs
- Submit guitar-cover videos
- Get a lot of thumbs up for your work

Songbook

Last visited songs

Site
Home
Search
Community
Submit chords

Video

No video for this page. Check out how you can submit guitar-cover videos here

Search tabs and chords

Browse by artist

A B C D E F G H I J K L M N O P Q R S T U V W X Y Z #


Menu

Search

Video

Bookmark

Login