GuitarTabsExplorer icon
GuitarTabsExplorer icon

Log in

Songbook

  • Log in to add and see bookmarks

Last visited songs

  • No songs visited yet...
Syndicate by Derivakat

Bass tabs

  • Difficulty: Intermediate
Tuning: Standard (E A D G)

ğŸŽ¸ Intro: (repeat for whole song)

G|----------------------------7-5-3---|
D|---5--------8------7----------------|
A|------------------------4-5---------|
E|-3---3--5-6---6--5---5--------------|

G|----------------------------7-5-3---|
D|---5--------8------7----------------|
A|------------------------4-5---------|
E|-3---3--5-6---6--5---5--------------|
ğŸŽ¸ Verse 1:

G|----------------------------7-5-3---|
D|---5--------8------7----------------|
A|------------------------4-5---------|
E|-3---3--5-6---6--5---5--------------|

G|----------------------------7-5-3---|
D|---5--------8------7----------------|
A|------------------------4-5---------|
E|-3---3--5-6---6--5---5--------------|


ğŸŽ¸ Chorus:

G|----------------------------7-5-3---|
D|---5--------8------7----------------|
A|------------------------4-5---------|
E|-3---3--5-6---6--5---5--------------|

G|----------------------------7-5-3---|
D|---5--------8------7----------------|
A|------------------------4-5---------|
E|-3---3--5-6---6--5---5--------------|


ğŸŽ¸ Verse 2:

G|----------------------------7-5-3---|
D|---5--------8------7----------------|
A|------------------------4-5---------|
E|-3---3--5-6---6--5---5--------------|

G|----------------------------7-5-3---|
D|---5--------8------7----------------|
A|------------------------4-5---------|
E|-3---3--5-6---6--5---5--------------|
ğŸŽ¸ Chorus:

G|----------------------------7-5-3---|
D|---5--------8------7----------------|
A|------------------------4-5---------|
E|-3---3--5-6---6--5---5--------------|

G|----------------------------7-5-3---|
D|---5--------8------7----------------|
A|------------------------4-5---------|
E|-3---3--5-6---6--5---5--------------|


ğŸŽ¸ Bridge:

G|----------------------------7-5-3---|
D|---5--------8------7----------------|
A|------------------------4-5---------|
E|-3---3--5-6---6--5---5--------------|

G|----------------------------7-5-3---|
D|---5--------8------7----------------|
A|------------------------4-5---------|
E|-3---3--5-6---6--5---5--------------|


ğŸŽ¸ Chorus:

G|----------------------------7-5-3---|
D|---5--------8------7----------------|
A|------------------------4-5---------|
E|-3---3--5-6---6--5---5--------------|

G|----------------------------7-5-3---|
D|---5--------8------7----------------|
A|------------------------4-5---------|
E|-3---3--5-6---6--5---5--------------|


ğŸŽ¸ Outro:

G|----------------------------7-5-3---|
D|---5--------8------7----------------|
A|------------------------4-5---------|
E|-3---3--5-6---6--5---5--------------|

G|----------------------------7-5-3---|
D|---5--------8------7----------------|
A|------------------------4-5---------|
E|-3---3--5-6---6--5---5--------------|

[ Privacy | About us ]

Welcome to the guitar community

Why join and log in?
- Get songbook with favourite songs
- Get custom made front page
- Submit chords and tabs
- Submit guitar-cover videos
- Get a lot of thumbs up for your work

Songbook

Last visited songs

Site
Home
Search
Community
Submit chords

Video

No video for this page. Check out how you can submit guitar-cover videos here

Search tabs and chords

Browse by artist

A B C D E F G H I J K L M N O P Q R S T U V W X Y Z #


Menu

Search

Video

Bookmark

Login