Log in

One click and you are in

Login with Facebook Login with Google

Why sign up and log in

Guitar Tabs Explorer
Depresión Sonora bass tabs for Hay que abandonar este lugar

Hay Que Abandonar Este Lugar bass tab by Depresión Sonora

Depresión Sonora bass tabs for Hay que abandonar este lugar

Bass tabs

Tuning: Standard (E A D G)

🎸 Intro:

G|----------------------------------------|
D|----------------------------------------|
A|--------------------------5--7----------|
E|--7--7--7--7--5--7--7--7----------------|
G|----------------------------------------|
D|--------------------------4--5----------|
A|----------------------------------------|
E|--3--3--3--3--2--3--3--3----------------|


G|----------------------------------------|
D|----------------------------------------|
A|----------------------------------------|
E|--7--7--7--7--5--7--7--7--7--7--5-------|

G|----------------------------------------|
D|----------------------------------------|
A|----------------------------------------|
E|--3--3--3--2--3--3--3--3--3--3--3-------|

G|----------------------------------------|
D|----------------------------------------|
A|--------------------------------5--7----|
E|--7--7--7--7--5--7--7--7--5--7----------|

G|----------------------------------------|
D|--------------------------4--5----------|
A|----------------------------------------|
E|--3--3--3--3--2--3--3--3----------------|

Almost there ...

Sign in to get your own page with links to favourite songs and more. You are just one click away...

Login with Facebook Login with Google